Аккорды для всех - сайт народных аккордов
 
Аккорды и тексты песен
Guitar Pro табулатуры
Уроки игры на гитаре
Таблица аккордов
Бесплатные программы для музыкантов
Фотографии музыкантов
Видеоклипы
Каталог ссылок
Обратная связь
На главную страницу
 
 
     
 
 

Аккорды, песни, текст, табулатура



Limp Bizkit - My Way


Обычная настройка(standart tuning).
Intro.
e|--------4--------|
B|-2-------------5-|
G|-----------------|
D|--------2--------|
A|-0-------------3-|
E|-----------------|

Не знаю какие там эффекты,но на акустике только для себя,
слишком уж обломно.Кто хочет может на басы и не смотреть
(просто играть на 2-й и 1-ых струнах).

Solo(самый клёвый момент, было бы также его играть).

e|-------|-------|-------|-------|-------|-------|---------|
B|-------|-------|-------|-------|-------|-------|---------|
G|-------|-------|----6-6|-------|----8-8|-------|----11-11|
D|----8-8|----4-4|--4----|----6-6|--6----|----9-9|--9------|
A|--6----|--2----|2------|--4----|4------|--7----|7--------|
E|4------|0------|-------|2------|-------|5------|---------|

e|-----------|
B|-----------|
G|-----------|
D|-----11-11-|
A|---9-------|
E|-7---------|

End

B|-3--4--6---3--4--2-|

Вообще-то концовка должна играться аккордами, но на обычной
настройке не получится, поэтому на одной струне и написал.

Вот вариант для другой настройки.
с#|-4----------|-5----------7-|
G#|------------|--------------|
E |------------|-4----------4-|
B |-2----------|--------------|
F#|-2----------|-5----------5-|
C#|-0----------|-3----------3-|

c#|-4----------|-5----------0-|
G#|------------|------------0-|
E |------------|-4----------4-|
B |-2----------|------------5-|
F#|-2----------|-5----------5-|
C#|-0----------|-3----------3-|

Первые три аккорда,звучат неплохо и на обычной настройке.

Special
you think you?re special
you do
i can see it in your eyes
i can see it when you laugh at me
look down on me
and walk around on me

just one more fight about your leadership
and i will straight up leave your shit
cuz i?ve had enough of this
and now im pissed

yeah

this time im a let it all come out
this time im a stand up and shout
im a do things my way
it?s my way
my way or the highway

this time im a let it all come out
this time im a stand up and shout
im a do things my way
it?s my way
my way or the highway

just one more fight about a lot of things
and i will give up everything
to be on my own again
free again

yeah


this time im a let it all come out
this time im a stand up and shout
im a do things my way
it?s my way
my way or the highway

this time im a let it all come out
this time im a stand up and shout
im a do things my way
it?s my way
my way or the highway

Someday you?ll see things my way
cuz ya never know
no ya never know

someday you?ll see things my way
cuz ya never know
no ya never know
when you?re gonna go

just one more fight and ill be history
yes i will straight up leave your shit
and you?ll be the one who?s left
missing me

yeah

this time im a let it all come out
this time im a stand up and shout
im a do things my way
it?s my way
my way or the highway

this time im a let it all come out
this time im a stand up and shout
im a do things my way
it?s my way
my way or the highway

Someday you?ll see things my way
cuz ya never know
no ya never know
when you?re gonna go

someday you?ll see things my way
cuz ya never know
no ya never know

 

 

 
 
 
     
 
 
 

инженеров.netДомашняя страницаНезависимый морской сайтПортал для гитаристовПриколы, юмор, анекдоты

 
обновлен 24.12.2011
в сети с 06.03.2004
 
 
Неофициальный морской сайт Домашняя страница Яндекс цитирования Internet Map Rambler's Top100
Учет посещений на народе

все тексты песен являются собственностью их автора. песени взяты из открытых источников. на сайте размещены с целью ознакомления. при использовании материалов сайта ссылка на сайт обязательна.

по всем вопросам стучитесь в асю или пишите на электропочту

идея, дизайн, редактирование Леха ZaG Загрядский

zagstudio