( )

A                                                   

exoo

----------

a a oy

po:

B C Dm

e-1---1-3---3-5-|

B-3---3-5---5-6-|

G-3---3-5---5-7-|

D-3---3-5---5-7-|

A-1---1-1---3-5-|

E---------------|

eo:

Dm F

e------------------------------------|

B------------------------------------|

G-------10---7----------10--10-10----|

D-7-7-7-----------7-7-7-----------10-|

.....................................|

Dm F

e-----------------------------------|

B------------------------10--8-6-10-|

G-------10---7----------------------|

D-7-7-7-----------7-7-7-------------|

....................................|

aee, a p eo, ce aop ye

pa appe, o ec:

Dm = Dm(V) Dm(X)

F = F(VIII)

B = B(VI)

C = C(VIII)

Gm = Gm(X)

D# = D#(VI)

Dm F

ay o c y oa

B C

epeea e


Dm F

ay o ee e o ca

B C

ce o a cepeo

Dm F

o, a

B C

eep ox pyax

Dm F

cycce pae

B C

pe cox eax

B C Dm

a a oy - oy peya

Gm F B

o ea ocyecc-a-a

C Dm

a a oy, o o e e pa

Gm F D#

ee oe e ey cpec-a-a

opoxe ae ooo o

apoa aey

cpo p, e y py

o e c a pee

Ca, oey

e co a

Ca y

Cop a yco pa

a a oy - oy peya

o ea ocyecc

a a oy, o o e e pa

ee oe e ey cpec

eaea apa:

Dm F \\

e------------------------------------| |

B------------------------------------| |

G-------10---7----------10--10-10----| |

D-7-7-7-----------7-7-7-----------10-| |

.....................................| |

|

Dm F | x2

e-----------------------------------| |

B-----------------------------------| |

G-------10---7----5---7-------------| |

D-7-7-7-----------------------------| |

....................................| |

/

Dm F \\

e----------------------------------------| |

B-----------------------------10--8-6-10-| |

G-------10--10-10-7----------------------| |

D-7-7-7----------------7-7-7-------------| |

.........................................| | x2

|

Ca: |

|

e-3///5----5///3-| /

a a oy - oy peya

o ea ocyecc

a a oy, o o e e pa

ee oe e ey cpec

ooa: Dm Dm Dm F F Dm

_________________

aleister, Irkutsk, Russia

tabs@igetus.esir.ru