( )

A                                                   

Intro:

6 ------------------------------------------------------4-----

5 ----3-3-3-3-5-3-2-3--3-3-3-3-5-3-2-3--3-3-3-3-5-3-2-3-------

4 ------------------------------------------------------------

3 ------------------------------------------------------------

2 ------------------------------------------------------------

1 ------------------------------------------------------------

6 ------------------------------------------------------------

5 ----7-7-7-7-5-3-2-3--7-7-7-7-5-3-2-3--8-8-8-8-7-5-3-5-------

4 ------------------------------------------------------------

3 ------------------------------------------------------------

2 ------------------------------------------------------------

1 ------------------------------------------------------------

aee pop F5(1)-D5(5)-E5(7)

A G

Co yx, co yo,

Dm

ea a pao ocy coo,

Em F G

e co eeo, o e oe oo

Am G

a pao - a eo,

m

a epx ex,

Em F G

o o o ae o cya x!!!

pe:

Am G

o o, o y e?

F

o o, o e e?

Dm

o o?

a o oy a o ?

o o o a o ?

o o?

O a ocy,

a ce oe,

cooa opee, pa eo,

ap opoa yx,

A o o, o cya x?

o o ce, o cya x?

ce aop AmA5

F F5 ..

Co o aop yea o-o a

6 ------------------------------------------------------------

5 ------------------------------------------------------------

4 ------------------------------------------------------------

3 -------------------------------------------------10-7-7-----

2 ----15-13-15----15---15-13-12-13-12-13-12---10-8--------10--

1 --12---------12-----------------------------------------10--

6 --------------------------------------------------------------3-

5 ------------------------7--9-9--7--10----12-10-8 -7-8 -7-8 -7-5-

4 -----------------------------------------14-12-10-9-10-9-10-9---

3 ----------------------------------------------------------------

2 ---10-----------------------------------------------------------

1 ------8-10-12--12-10-7-5----------------------------------------

6 ----------------------10-------------------------------------------

5 -12-10-8 -7-8 -7-8 -7-12--12-10-8 -7-8 -7-8 -7--7-9-10-------------

4 -14-12-10-9-10-9-10-9-----14-12-10-9-10-9-10-9---------7-9-10------

3 --------------------------------------------------------------7-9--

2 -------------------------------------------------------------------

1 -------------------------------------------------------------------

6 -------------------------------------------------------------------

5 -------------------------------------------------------------------

4 -------------------------------------------------------------------

3 -------------------------------------------------------------------

2 --8-10-------------------------------------------------------------

1 -------7co o 15--------------------------------------------

aee pop F5(1)-D5(5)-A5(5)-E5(7)-F5(1)-D5(5)-E5(7)-F(8)-G(10)

pe.