( )

A                                                   

C E

Coeae o

F

A eco a - o pa

G

a axoee po

G F C

\"O o o \"

Pyaa c pyao

O poo - o oo

Oco cec e

eco \"paa\" - o-p

pe:

Am

ypa aa

F G E

oa oo e a

Ceo, epa

apa - e cy o

oa cpea

o opa e oe

Cyc ea

p o-y o

Solo:

F F Am F F Am

e|--------------------------------------------------|

B|--------------------------------------------------|

G|--------------------------------------------------|

D|-------------------3-2-0--------------------------|

A|---2-3---2-3-0-2-3---------2-3---2-3-0-2-3-2-0----|

E|-1-----1-----------------1-----1---------------3--|

F F Am F F E

e|---------------------------------------|

B|---------------------------------------|

G|---------------------------------------|

D|-------------------3-2-0---------------|

A|---2-3---2-3-0-2-3---------2-3---2-3---|

E|-1-----1-----------------1-----1-------|

ypa aa

oa oo e a

Ceo, epa

apa - e cy o

2 paa

oa cpea

o opa e oe

Cyc ea

p o-y o

Am

ypa aa...