( )

A                                                   

1. ea o (A.ace)

Intro ocoo p a a aop (epeoc):

Am Am7

e |---0---------3-3-3-----0---------3-3-3----|

B |-1-1-1-----1-1-1-1---1-1-1-----1-1-1-1----|

G |-2-2-2-----2-2-2-2---2-2-2-----2-2-2-2----|

D |-2---2--2--2---------2---2--2--2----------|

A |-0---0--0--0---------0---0--0--0----------|

E |------------------------------------------|

Hm Hm7

e |---2---------5-5-5-----2---------5-5-5----|

B |-3-3-3-----3-3-3-3---3-3-3-----3-3-3-3----|

G |-4-4-4-----4-4-4-4---4-4-4-----4-4-4-4----|

D |-4---4--4--4---------4---4--4--4----------|

A |-2---2--2--2---------2---2--2--2----------|

E |------------------------------------------|

Am Hm Am Hm

xo, cey pe ca,

ao eae eo o e ae,

o e ae,

o e ae.

pop aa: a o e,

eep a eo e cpao,

drugdealer oa

a e ocye y ay,

eeop oc,

e peapye coce-

poa, aoo

xo paoc poa-ya,

epe e, a poc,

oce oo, a pocyc,

Cop, a eeo, paco

e 9-a o,

9-a o,

9-a o...