( )

A                                                   

1. Coao ce (A.ace)

Intro ocoo p (epeoc):

e |---------------------------------------------------|

B |-8-6-----5--5-6-5---8-6-----5--5-6-5---8-6-----5---|

G |-7-------6----------7-------6----------7-------6---|

D |---------7------------------7------------------7---|

A |---------------------------------------------------|

E |---------------------------------------------------|

e |------------------------|

B |--5-6-5---5-----5-------|

G |----------5-------6-----|

D |----------7---------7---|

A |------------------------|

E |------------------------|

Dm D*

Coo poeo epc

Dm D*

Coo poeo epc

Dm D* Dm D*

Coao ce, papyeo ce

Am

Coao ce...

xo aa eco

C po co eco

Coao ce, papyeo ce

Coao ce...

Coo ao e

Coo ao e

ao e...

o o o co

o o ao cpa co

Coao ce, papyeo ce

Coao ce...

*peoo, o a ayce o epec a:

D*

e |-0|

B |-2|

G |-2|

D |-0|

A |--|

E |--|