( )

A                                                   

Intro: { repeat }

1|-----9---12-9--------12-9------12-9--------9-14------------14------------14-----------14

2|--10--10-----10--10-----10-10-----10--10-----15-12---12--15-12---12--15-12--15---

3|-9----------------9-----------9-----------9---------------11------------11------------11-----

A

a ceo a oo,

a a oe oo -

Hm

Cepe, oopo e eca.

o o, o o...?

A

a ceo a oo,

a a oe oo -

Hm

Cepe, oopo e eca.

o o, o o...?

a ceo a oo,

a a ae oo -

Cepe, oopo e eca.

o o, o o...?

a op o pea,

e x o a,

co coa -

a ceo a oo.

Outro: A5 H5

eo, poe:

2|-10-9-10-12-10-9-10-10--

3|-----------------------------11

apa ao, ycyp ao, Aya ao,

e a ao e.

oaoa ao, opxeca ao, eea ao,

e a ao e... -y!

yee ec aoe:

p paa

1|-----------9--------------------9--

2|-10-9^10-12------------9^10-12

3|---------------6-4-6-4-2----------

a eep

1|-----------9--14

2|-10-9^10-12---