( )

A                                                   

101- oep
18 e cyc
38 o
A oe, e o o
A y-a, ceae e oo, ce a
Apa - ya
Ax o!
Ay - ay
Apca
Ac
Aaea
Aaca a
Ca oe
Caoyco
Caa oo
Cepepca oa
Ceaop
Co Pyy
Co Pyy (2)
Cya epoca
Cy eo ayc
Cy eo ayc (2)
Caa
Caoco Ca
Copa oo
Cpa pococ o
Ce ee
Cape cae
Cpaa
Cpaa (2)
C
Ecay ooe
Ecay ooe (2)
Ecay ooe (3)
Ec o oo
Heoo, eaoo
O Xooax
Oce
Oxoa a oo
Oo e e ao aa
Oc
Oeccoe oypp
Oo o
Ooeco
O, yap, yap
Occ
O oa o oa
Ocy o e, ocy
Ocy o e, ocy (2)
Opac ep
Oepe a xeo
Oe oe O oe
Paccaae
Paccaae (2)
Pacac a ce
Pape ee ay
Paoop oce
Paoop, ocya epe epa-a
Paee a poye
Pee
Poee Cxo
Poac eepaa apo
Poac a-ypca
Xopy
a p
a o
aoaac eepo apo a
aaa 1812 oa
aaa o eeae
ecpop
ecpop - 2
eoa oaa
ea o
ea a ya
pao
pa
paa
pooe
a
62-o oy
62-o oy (2)
y opa
ac 37-o oa
ac a ee aae
ac a ococ
ac-oco
ac-oco (2)
ce ae
cay Pao o py
eceee Cyacece
epoa
eep-oopa
eep, acoa
ea cya
ea cya (2)
oceaa oex Coeo
ocpecee
ocoae O yye
op aoe
opaee opo
o O axapa o ppoa
coa Ooeca
acpoa
opo eoe
oocy
oy
oya
o-co
o-co (2)
e-Hy, a-Hy
yxap
yxap (2)
aoc
aoc (2)
a e yy
eapcc Co
e Poe
o Ca oop a, py o
opoa o
opoa a aaoo
oa opoa ea
ya
a ea a axe
epeeo
epeeo (2)
a aaecoo
axoe a a Ooe
ac
oa
o
pa oopae
o
e
apaa
apaa (2)
aoa apoxo
aa
aa (2)
a Cao o xo a oaax
a a p Peo
aae
aaa
opa oo
oea
oea - 2
paca cea
pya

yaca aa
yya
a
ecoca
xo, oe xo
oa
ap eep apeep
ap yaacoo ceaa
aa
a
aa
aa a
o Py ac ao
o pa
o o py
ooo oa epoo aa
ooo oa epoo aa (apa)
ypa
ya
e e-aea aa Cco
C Poc Oo ope
epec

(2)
a oe, a a oe
a opoe
a oy, a oe
a epeae o
a aax
a e opoxoo
a e apaa
apcye e o
aeea pyc
e Xoy Cape
e poac C Opecpo
eye o o
ey pee
oea O oax
y,o
Cap
a
eo e eoooo
ec capoo opoo
ec Epecoo opoo
ec O oape
ec pee aco
ec o acx poe
ec pacx oo
ec yaoo Ceaa
ec epoaooa
epea
epea-oe
ep-opo
ep Ae o
o Cey, eey C ea
o epoy Cpoy
ocee Poay aaoy
ocee Oyae
ocee oca
oceoe ac
ocepa aca
oap oco eo
oocooe ao
oae e ocy
ooa opa
oe, oe, oe (Cap)
oecep eoae
pepacce ac
poc-poa
poo-a e, a, a oy
poo
poya o ecoy
yc e, o ac Xo y-y
yxo eo ee (a A opoccoa)
co
aopa Cac
a, ya Cey
e eep ea
paccpca acpa
Ҹ a
c oe
a ooa
Oa
c
a
a Oxoa
a oxoa - 2
a oxoa - 3
paep
peepo apc ope
aac ap
ea
epo
eepoa
eepoa (2)
o-o ec e a
a, paa, Ceac Cay
oxoc
pex-aecep
aco pocac e
papa
pya:Poeay Aecap

ec:cape cae

tune E-B-G-D-A-E

intro

X|-0-0-0-0-|

X|-1-1-1-1-|

X|-2-1-0-1-|

X|-2-2-2-2-|

X|-0-0-0-0-|

X|-0-0-0-0-|

Riff (1)

X|-0-0--1-1--0-0--0-0----1-1--3-3--0-0----1-1--0-0--0-0--1-1----1-1--0-0--0--0-

X|-1-1--1-1--3-3--1-1----3-3--3-3--1-1----3-3--3-3--1-1--1-1----3-3--3-3--1--2-

X|-2-2--2-2--1-1--2-2----2-2--0-0--0-0----2-2--1-1--2-2--2-2----2-2--1-1--2--0-

X|-2-2--0-0--2-2--2-2----0-0--0-0--2-2----0-0--2-2--2-2--3-3----0-0--2-2--2--2-

X|-0-0--x-x--2-2--0-0----0-0--2-2--3-3----0-0--2-2--0-0--3-3----0-0--2-2--0--0-

X|-0-0--x-x--0-0--0-0----x-x--3-3--0-0----x-x--0-0--0-0--1-1----x-x--0-0--0--0-

-1-1--0-0--0-0--1-1----1-1--0-0--0-0-|

-3-3--3-3--1-1--1-1----3-3--3-3--1-1-|

-2-2--1-1--2-2--2-2----2-2--1-1--2-2-|

-0-0--2-2--2-2--3-3----0-0--2-2--2-2-|

-0-0--2-2--0-0--3-3----0-0--2-2--0-0-|

-x-x--0-0--0-0--1-1----x-x--0-0--0-0-|

Riff (2)

X|-1-1--2-2--x-x--1-1----2-2--4-4--4-4----2-2--x-x--1-1--2-2----2-2--x-x--1-1--1-1-|

X|-2-2--2-2--4-4--2-2----4-4--4-4--6-6----4-4--4-4--2-2--2-2----4-4--4-4--2-2--2-2-|

X|-3-3--3-3--2-2--3-3----3-3--5-5--6-6----3-3--2-2--3-3--3-3----3-3--2-2--3-3--3-3-|

X|-3-3--1-1--3-3--3-3----1-1--6-6--6-6----1-1--3-3--3-3--4-4----1-1--3-3--3-3--3-3-|

X|-1-1--1-1--3-3--1-1----1-1--6-6--4-4----1-1--3-3--1-1--4-4----1-1--3-3--1-1--1-1-|

X|-x-x--x-x--x-x--x-x----x-x--4-4--x-x----x-x--x-x--x-x--2-2----x-x--x-x--x-x--x-x-|

Riff (3)

X|-2-2--3-3--x-x--2-2----3-3--0-0--2-2----3-3--x-x--2-2--3-3----3-3--x-x--2-2--2-2-|

X|-3-3--3-3--5-5--3-3----5-5--2-2--3-3----5-5--5-5--3-3--3-3----5-5--5-5--3-3--3-3-|

X|-4-4--4-4--3-3--4-4----4-4--2-2--2-2----4-4--3-3--4-4--0-0----4-4--3-3--4-4--4-4-|

X|-4-4--2-2--4-4--4-4----2-2--2-2--0-0----2-2--4-4--4-4--0-0----2-2--4-4--4-4--4-4-|

X|-2-2--2-2--4-4--2-2----2-2--0-0--0-0----2-2--4-4--2-2--2-2----2-2--4-4--2-2--2-2-|

X|-x-x--x-x--x-x--x-x----x-x--x-x--x-x----x-x--x-x--x-x--3-3----x-x--x-x--x-x--x-x-|

Riff (4)

X|-3-3--4-4--x-x--3-3----4-4--6-6--6-6----4-4--x-x--3-3--4-4----4-4--x-x--3-3--3-3-|

X|-4-4--4-4--6-6--4-4----6-6--6-6--8-8----6-6--6-6--4-4--4-4----6-6--6-6--4-4--4-4-|

X|-5-5--5-5--4-4--5-5----5-5--7-7--8-8----5-5--4-4--5-5--5-5----5-5--4-4--5-5--5-5-|

X|-5-5--3-3--5-5--5-5----3-3--8-8--8-8----3-3--5-5--5-5--6-6----3-3--5-5--5-5--5-5-|

X|-3-3--3-3--5-5--3-3----3-3--8-8--6-6----3-3--5-5--3-3--6-6----3-3--5-5--3-3--3-3-|

X|-x-x--x-x--x-x--x-x----x-x--6-6--x-x----x-x--x-x--x-x--4-4----x-x--x-x--x-x--x-x-|

Riff (5)

X|-4-4--5-5--x-x--4-4----5-5--7-7--7-7----5-5--x-x--4-4--0-0----5-5--x-x--4-4--4-4-|

X|-5-5--5-5--7-7--5-5----7-7--7-7--9-9----7-7--7-7--5-5--2-2----7-7--7-7--5-5--5-5-|

X|-6-6--6-6--5-5--6-6----6-6--8-8--9-9----6-6--5-5--6-6--2-2----6-6--5-5--6-6--6-6-|

X|-6-6--4-4--6-6--6-6----4-4--9-9--9-9----4-4--6-6--6-6--2-2----4-4--6-6--6-6--6-6-|

X|-4-4--4-4--6-6--4-4----4-4--9-9--7-7----4-4--6-6--4-4--0-0----4-4--6-6--4-4--4-4-|

X|-x-x--x-x--x-x--x-x----x-x--7-7--x-x----x-x--x-x--x-x--x-x----x-x--x-x--x-x--x-x-|

Riff (6)

X|-1-1--3-3--3-3--1-1----3-3--3-3--1-1----3-3--3-3--1-1--1-1----3-3--3-3--1--2--

X|-3-3--3-3--2-2--3-3----3-3--5-5--1-1----3-3--2-2--3-3--3-3----3-3--2-2--3--1--

X|-2-2--3-3--2-2--2-2----3-3--5-5--2-2----3-3--2-2--2-2--3-3----3-3--2-2--2--2--

X|-0-0--3-3--2-2--0-0----5-5--5-5--3-3----5-5--2-2--0-0--3-3----5-5--2-2--0--0--

X|-0-0--5-5--0-0--0-0----5-5--3-3--3-3----5-5--0-0--0-0--1-1----5-5--0-0--0--0--

X|-x-x--3-3--x-x--x-x----3-3--x-x--1-1----3-3--x-x--x-x--x-x----3-3--x-x--x--x--

-3-3--3-3--1-1--1-1----3-3--3-3--1-1-|

-3-3--2-2--3-3--3-3----3-3--2-2--3-3-|

-3-3--2-2--2-2--3-3----3-3--2-2--2-2-|

-5-5--2-2--0-0--3-3----5-5--2-2--0-0-|

-5-5--0-0--0-0--1-1----5-5--0-0--0-0-|

-3-3--x-x--x-x--x-x----3-3--x-x--x-x-|

ACCORDS:

Riff (1)- Am, Dm7, E7, Am, Dm, G, C, Dm, E7, Am, F, Dm, E7, Am, A7, Dm, E7, Am, F, Dm, E7, Am, Am.

Riff (2)- Am#, Dm7#, E7#, Am#, Dm#, G#, C#, Dm#, E7#, Am#, F#, Dm#, E7#, Am#, Am#.

Riff (3)- Hm, Em7, F7#, Hm, Em, A, D, Em, F7#, Hm, G, Em, F7#, Hm.

Riff (4)- Hm#, Em7#, G7, Hm#, Em#, G7, Hm#, G#, Em#, G7, Hm#, Hm#.

Riff (5)- Cm#, Fm7#, G7#, Cm#, Fm, H, E, Fm, G7#, Cm#, A, Fm, G7#, Cm#.

Riff (6)- Dm, Gm7, A7, Dm, Gm, C, F, Gm, A7, Dm, A#, Gm, A7, Dm, D7, Gm, A7, Dm, A#, Gm, A7, Dm.

P.S.

a cey ye paec a o oa e peyeo.

o e o oc (co oo eaa poc).