( )

A                                                   

INTRO (4 paa)

|---------------------------------------------------------------|

|---------------------------------------------------------------|

|---------------------------------------------------------------|

|--5-5-5-5-3-3-3-5--5-5-5-6-5-6---2-2-2-2-0-0-0-2--2-2-2-3-2-2--|

|--3-3-3-3-3-3-3-3--3-3-3-3-3-3---0-0-0-0-0-0-0-0--0-0-0-0-0-0--|

|---------------------------------------------------------------|

Riff 1

|-----------|

|-----------|

|-----------|

|-5-5-5-5-5-| y aa! Cea o! oa ce, o ca

|-3-3-3-3-3-|

|-----------|

|-----------|

|-----------|

|-----------|

|-2-2-2-2-2-| E o a, o oe. a oo oya

|-0-0-0-0-0-|

|-----------|

|-----------|

|-----------|

|-----------|

|-5-5-5-5-5-| Cea oapo co paa. opay x e, o e oe e

|-3-3-3-3-3-|

|-----------|

|-----------|

|-----------|

|-----------|

|-2-2-2-2-2-| aya cyax poxox. aca ayac o cye

|-0-0-0-0-0-|

|-----------|

Riff 2 (2 paa)

|-----------------------------------------------------------------------------|

|-----------------------------------------------------------------------------|

|-----------------------------------------------------------------------------|

|--5-5-5-5-5-5-5-5--12-12-12-12-12-12-12-12--7-7-7-7-7-7-7-7--9-9-9-9-9-9-9-9-|

|--3-3-3-3-3-3-3-3--10-10-10-10-10-10-10-10--5-5-5-5-5-5-5-5--7-7-7-7-7-7-7-7-|

|-----------------------------------------------------------------------------|

Riff 1

yae, o - oe pyo

Xo e oe a coo opo

oy eo e oae ec

ae ec co ao ce

ye eeo copec ee

a aee a, opoa e

e xoe opoc co coo cyo

ee oee, xoe oo

Riff 2

y a ye pac

ac oc y ea

o e epaa yea o

oecc, ee ye oo

Riff 3 (2 paa)

|---------------------------------------------|

|---------------------------------------------|

|---------------------------------------------|

|-14-14-14-14-14-14-14-14-14-14-14-14---9---5-|

|-12-12-12-12-12-12-12-12-12-12-12-12---7---3-|

|---------------------------------------------|

|---------------------------------|

|---------------------------------|

|---------------------------------|

|-14-14-14-14-14-14-14-14---5---7-|

|-12-12-12-12-12-12-12-12---3---5-|

|---------------------------------|

INtro (2 paa)

Riff 1

o a opya

Co oe c ye ya

o aoe-o ce

a eoy c y ce

Poe oop pa oy

eeoc coe

oaa e

yy ae o eyeo cee

Riff 2

ce epe ec ayy o

a e ooac oo

y e, aa, epy py

poe ee py

Riff 3 (2 paa)

INtro (4 paa)