( )

A                                                   

P.M.--

Riff a

------------------------------------------------------------------------------

------------------------------------------------------------------------------

------------------------------------------------------------------------------

13--13--13--13--13--13--8--8--8--8--8--8--10-10-10-10-10-10-5--5--5--5--5--5--

13--13--13--13--13--13--8--8--8--8--8--8--10-10-10-10-10-10-5--5--5--5--5--5--

11--11--11--11--11--11--6--6--6--6--6--6--8--8--8--8--8--8--3--3--3--3--3--3--

-------------------------------------------------------------------------------

-------------------------------------------------------------------------------

-------------------------------------------------------------------------------

6--6--6--6--6--6--8--8--8--8--8--8--13--13--13--13--13--13--13--13--13--13--13-

6--6--6--6--6--6--8--8--8--8--8--8--13--13--13--13--13--13--13--13--13--13--13-

4--4--4--4--4--4--6--6--6--6--6--6--11--11--11--11--11--11--11--11--11--11--11-

paec yaax ecax

Riff a

e , e epa y

E epa, e epa y.

Eb5 Bb5 C5 G5

e apoa, xa OE,

Ab5 Bb5 Eb5

aay yp epa c oo.

epa ye oe e pe

o aa o paac.

pe c ypa ey a

o aa o paac.

riff a

a a a a a, aaaaaa,

aaaaaaaaaa.

a a a a a, aaaaaa,

aaaaaaaaaa.

epa ye oe e pe

o aa oac coce.

e apoa, xa OE,

aay yp epa c oo.

riff a

Love is who let us die, I^m looking to be why,

I^m looking to be I dont let me in.

Love is who let us die, I^m looking to be why,

I^m looking to be I dont let me in.

epa ye oe e pe

Xoy ocaoc ey c.

Eb5-paec coo ee, a oo eaec e a oy ep.