( )

A                                                   

Intro: G

G D

Oce o cep e

C H Em (acc / D)

poea o opoy Oe

C D G

O ea o yo ocoo

Am C H

P eco yeo cpeo

pe:

Em

e e, Oe,

H

o oey xoe!

Dm

e, Oe,

E Am

co cpay oe,

D G

e coc pyc eo,

C Am

e e e,

C H Em

e ya, eco Oe.

O ea, ce poa

aea y, oaa.

aaoc yo a

Caooc eo oy.

e, eco Oe,

o oey xoe!

e Oe

co cpay oe,

e coc pyc eo,

e e e,

e ya, eco Oe.

Coo ap, a a acy ap pea

E|--------------------------------|

H|-----1-0-0----------------------|

G|----0----------5-4-4-4-3-4-5-4-4|

D|---2------5-4-2-----------------|

A|--2-----------------------------|

E|--------------------------------|

E|-------------------------------------|

H|-------5------------5-3--------3-1---|

G|--4-3-4-5-4-2-2-2------5-4--------4-2|

D|-----------------5-4------5-4-2------|

A|-------------------------------------|

E|-------------------------------------|

E|------------------|

H|------------------|

G|------------------|

D|--4-2-2-2-1-1-1-2-|

A|-------------4----|

E|------------------|

oop yec a cee e,

o c Oe ce.

oo a o o e pe!

Ec ep caa oe!

Co o eco Oe

o oey xoe!

e Oe

co cpay oe

e coc pyc eo

e e e

e ya eco Oe.

e e, Oe,

o oey xoe!

e, Oe,

co cpay oe.

e coc pyc eo,

e e e,

e ya, eco Oe!

e ya, eco Oe!

e ya, eco Oe!

e ya, eco Oe!