( )

A                                                   

o o epa oa o-o oopa, a o e cye co cpoo.

Oo cex eoocx poy coo a mail: Flash_ak@mail.ru

gtr Hm A Em

bass e|-----------------------------------------------------------|

B|-----------------------------------------------------------|

G|-----------------------------------------------------------|

D|-----2/4-4--------2-0-2----------------2-------------------|

A|--2---------------------2--------2-4-5---5-4-5-2-----------|

E|-----------------------------------------------------------|

Solo

e|-7----7-7p10---7-10-12---10p12-----------------------------| x2

B|-----------------------------------------------------------|

e|-15-14---10-7----------------15-14---10-7--15p14h15--17----|

B|---------------8p7h8--10-----------------------------------|

Hm

a eex

A Em

ex ep c o.

o eaa -

yxo oa oa!

o epeyy -

p aa, a epe.

A a cee cyy

a eap !

Hm A Em

e co a ...

Co co, a, ...

Co co , c o y!

pao poa

op popo a eep!

ap poa...

O eo oca pae paep.

eo o cea

ep py coy.

C eo peoo

ooy oy a oy.

o eea a ea po...

Co co, a, ...

Co co , c o y!

e aopo,

o, a opya x e.

Cao aae

C eeox pao pe.

oe a

e co a e?

a oo e xo

ae a, e ce oca !

ep opo oca c ...

Co co, a, ...

Co co p, c o y!