( )

A                                                   

CEE (epe a yeo):

apa 1.

cyee paec o pe ap yapx

E A E A F F [G(ap) ] A

1--0-x-0-0----0-x-0-0----1-x-1-x-3----3-x-3-0

2--0-x-0-1----0-x-0-1----1-x-1-x-3----3-x-3-1

3--1-x-0-2----1-x-0-2----2-x-2-x-4----4-x-4-2

4--2-x-0-2----2-x-0-2----3-x-3-x-5----5-x-5-2

5--2-x-0-0----2-x-0-0----3-x-3-x-5----5-x-5-0

6--0-x-0-0----0-x-0-0----1-x-1-x-3----3-x-3-0

! ]

() ]

()-yee cex cpy.

apa 2.

o oee eco ]

ye oo pa ]

aop \"E\" ]

ae aaec p ,c eo coo:

1------------------------------0-------------------------------------------------

2-1-0--1---0-1-0-1------------1-1--------1-0--1---0-1-0-1------------------------

3-------------------2--------2---2--------------------------2--------------------

4---------------------------2-----2----------------------------------------------

5--------------------------0-------0----------------------------------5-3-2---0------

6-------------------------0-------------------------------------------------3-

Am Dm Am

pxoa a, apac oa,yxo co opa e e,ae a o cea.

1---------------------------------------------------------1--1--------------------------

2-1---0-1-0-3---1-0-1-0-1------1---0-1-0-3---1-0-1-0-1----3----3------------------------

3-------------------------2-------------------------------2------2----------------------

4---------------------------------------------------------0-----------------------------

5---------------------------------------------------------0-----------------------------

6---------------------------------------------------------0-----------------------------

ae ce oopec, o accee oe eo oac ey...

Am

pxoa a, apac oa,

Dm

xo co opa e e,

Am

ae a o cea.

o aaa y ao

Dm

o ec, o e ca a e ce

Am

o poype apa.

PE 1:

Dm

e yxo, oy co o po!

Dm7

ye coce e o, a pae.

F G

ye e ye pac paca cea.

F G

ye e ye ecec o.

aeaa aa cao, yea a

ape cpa.

ca x poao c ooa.

xo oy aa a,

oa o-y e oca e a ...,

a yo a ee e .

PE 2:

e yxo, oy co o po!

ye coce e o, a pae.

ye e ye pac paca cea.

ye e ye ecec o.

POP: A o ec e oe oo,oo cpa A,E,F,G.(4 paa) ,

a oo A,E,Dm,F.(4 paa)

o o poe oxoe.

a ae ycopee.

o pe popa e co.

oce peeo pea ep o co oe ooco ece c apo.

4--5--3-2-0-2--0-5-5-3-2--0-5-5-3-2-0-2-0---]

5-----------------------------------------3-] 4 paa

6-------------------------------------------]

apac eco ece ca,

xo a ae capo coppe

a aaa pc.

ea ce o ca opa,

oce e ac oea,

Oocca x-e y.

PE 3:

e yxo, oy co o po!

ye coce e o, a pae.

ye e ye pac paca cea.

ye e ye ecec o.