( )

A                                                   

a-yc - y

Am G D Am

Ha cepe o, caae

(Am) G D Am

pe pyc aa

e ac oay

A oc eo cyy

A oc o caa

o oyce yo aa

Ha pacaeo oea

Am G D Am G

oe e cea

PE:

C G Am F

a, a eo peo,

C G Am F

o poooe co

C G Am F

ay o ce

C G Am F

y ... a oo

(** a o e ae, o ao ca :-))))) **)

C G Am F

y...

e ayy y o,

e ayy c cpax

oa ae aa

oo ax opeax

PE

eoo e a cee

acy eo oce

Ceaa a o cey

Cyxe c a cey

PE

--------------------------------------------------------------------------------

-2 - apapa

Gm D# Cm F

A|-------------|-6-6-------6-|-3-3-------3|-------------| BA

E|-3-3-------3-|-------------|------------|-1-1-------1-| SS

Gm D# Cm F Gm D# Cm F

a pyco oe oo ce o

Gm D# Cm F Gm D# Cm F

a o e o eep ceo py

Gm D# Cm F Gm D# Cm F

e poco oo a ooeca ca

Gm D# Cm F Gm D# Cm F

cpao oya p oy

Gm D# Cm F

apapa (4 paa)

Gm D# Cm F Gm D# Cm F

C oo oo ea a pa cea

Gm Am(V)? A# Cm D

Ho ea caa ya ypaa

Gm D# Cm F Gm D# Cm F

opaac cpya eep o ecea cea

Gm D# Cm F Gm D# Cm F

e e o ae ea

Gm D# Cm F

apapa (4 paa)

pop:

G|-------7-8---|------------|------------|-----7-8-|--5--5-------------| BA

D|-------------|------------|------------|---------|-------------------| SS

A|-------------|-3--5-6-5-3-|------------|---------|-3--3---30---------| BA

E|--3-3--------|------------|--111--222--|-3-3-----|-----------111-222-| SS

G|-------7-8---|--5--5------|--------7-8-|---------|-------------------| BA

D|-------------|------------|------------|---------|-------------------| SS

A|-------------|-3--3--30---|------------|-5-------|-------------------| BA

E|--3-3--------|----------1-|-11-2-3-----|---------|-------------------| SS

oa-o cac a cace a yo

a cace ecace a pyco o a oo

a a pee ye ecoeo e

Ox a aeo aeo aeo o e

Gm D# Cm F

apapa -o (4 paa)

Gm D# Cm F

apapa aa yy o e (10 pa)

--------------------------------------------------------------------------------

epa - y-y-a

HPO p:

E|-----------------------------|

B|-------------------------77*-|

G|-6P5-6--6P5-6--6P5-6P5-6-----|

"7*" - o caaa paec a oa(F#), a oo e band a ooa e.

C#m F# E A

co a pa, a ope, a peo,

G# C#m

He oy oee pyo ooo,

F# E A

aeo cepe e, ooe ay-yo,

G# C#m F# E A

e ocaoc oo e o, o epo ooy ayo.

pe:

C#m F# E

y-y-A, y--a, y-y-y-y-A,

A G#

ooe oe ao-a-xa.

y-y-A, y--a, y-y-y-y-A,

epo ooy ayo-a-a-a-xa.

ye o e pe ee xpoo,

o aa apea opaac e oo,

o ea oa c pa cocoy-ya

e ocaoc oo e o, o epo ooy ayo.

pe (2 paa)

--------------------------------------------------------------------------------

Ccoe aa - eo ooo

po: Em

eoeca a caypea

y "Commando" (oe, a aa oe co apeepo :-))

ce aop peoeyec pa o opo oype,

eaeo ooe a, ae oyc axe.

G Am

o ope

Em

o ca py

C Am Em

eo oo, eo

G Am

o ca peo

Em

eo oo

C Am Em G

eo ooo, eo

(G) Am Em

eo ooo

o ca cao,

Ho ye pyo

o-o ooo, o-o

Xoe ca peo

eo oo

eo ooo, eo

eo ooo

eo ooo, eo

eo ooo

eo ooo


pop.

eo ooo

eo ooo

eo ooo

--------------------------------------------------------------------------------

epa- caa

Main riff (distorted):

e ---------0-----1-----1h3--1-0-1---

B ---3---3-----3-----3--------------

G -----2-----2-----2----------------

Dm Dm/C Dm/Bb A Dm

caa e oa o,

Dm/C Dm/Bb A Dm

caa e opa e,

ypaax, o, cpe pye,

e, oa aa, c ya coa.

pe:

F5 A5 F5

coce a o ce,

A5 F5

Coce a aoax,

A5 G5 A5

e pcoaa e ya.

Hy, oe, ae o

Hoe, oe, ce, ep, o

cpe oe, yeah,

o, e o cape ao,

yp ae , yca oa.

pe:

--------------------------------------------------------------------------------

Ayo - opoa

654321

H7* = 021201

Em Am

ca cee eo, ya,

Am H7* Em

oa, ooa ya,

Em Am H7* Em

oa opoa, a o e o.

a o aa opoa,

ye ye opoa,

a e , oo o e .

H(2) C(3) C H7*

O, oa!

H(2) C(3) C H7*

Oae apeo pooa.

Em Am

ca cee eo, ya,

Am H7* Em

oa, ooa ya,

Em Am H7* Em

oa opoa ecaooa.

e epaa a o e,

oa, ea e,

eeo a, epeea.

yeaa oaa,

p eaa oaa

oa opoa ecaoa.

O, oa!

Oae apeo ecpocea.

ca cee eo, ya,

oa, ooa ya,

ea e-o, oo o e .

H(2) C C(3) H7* - 4p

Em C H7* - 2p

C H7* - 2p

Ca cee !

Em Am H7* Em Am H7* E

--------------------------------------------------------------------------------

Ccoe aa - Pooe o

Ha o oa ec c y aopo - oy e oa e

PA-2 cao epo - poco cyaec

Em

e e pac eo

Am

Coe eoo ea

H7

opoc e oeo

Em

Heo oce paccea ( o: "eo oce o")

Em

ec e eep

Am

Ha yy aey

H7

oo e a y

Em Am

e ce oep

H7

e ce oep

pe: 2 paa.

Em Am

e, pooe o

Em

o paea, e

Am H7

oe poe cace...

ce pop py

e, o c a, ypy

oee opo

Hya e ey

ec e eep

Ha pyy aey

e epoe eo

e e e ay 2 paa.

pe 2 paa.

pop.

--------------------------------------------------------------------------------

.yyco - paap-apaop

Cm G#

ec oy poea

Fm G

a opo eea

a ex pyeax

ox exax

pe:

Cm G#

paap

Fm G

aaop

Cm G#

a oo pac op

Fm G

aaop

Ec cea aa

oepea e p

ocaac opa

a oac pa

pe

paap

aaop

py ccae op

aaop

COO 2 paa

1|-------------------------------------------------------------------------

2|-------------------------------------------------------------------------

3|--0--5-7--8-----0--5-7--8--7--5--3--1------------------------------------

4|-----------------------------------------3--3-5--6--3--3-5--6--5--3--1--0-

5|---------------------------------------------------------------------------

6|---------------------------------------------------------------------------

o oae cacap

epo cpaae cap

He o ap co po

pyo oo

pe

aaop

paap

Haaec oap

paap

ooe oo

apoe co

yp cay o poa

po opo-Acepa

pe

aaop

paap

apaec aap

paap

Outro=solo

--------------------------------------------------------------------------------

-2 - ooy o e e

Clean Guitar:

.1|--6------5-------------------6------5-----------

.2|-------------------6-4--4-6---------------------

.3|----7-7---7-7--7---------------8-8--8-8--8-7----

.4|------------------------------------------------

.5|------------------------------------------------

.6|------------------------------------------------

N.C. Gm

oe opoa

D#

yce oea

Cm

H epea, a

D(V)

ce aa caaa

Xooa oa

pe, a oa

O e coe c ya

eo e aa...

pe:

G(Gm) D#

ooy o e e

.1|-------------------------------------------

.2|-------------------------------------------

.3|-----5-3-----------------------------------

.4|---5-----5------------------8-8--8-8-------

.5|-5---------5--5-6-5--8-6--6-6--6-6---------

.6|-------------------------------------------

G(Gm) F

ooa o e e

.1|-----------------------------6-6-5--6-6-5--

.2|-------------------------------------------

.3|-----5-3-----------------------------------

.4|---5-----5---------------------------------

.5|-5---------5--5-6-5--8-6-------------------

.6|-------------------------------------------

ooy o e e

ooa o e e...

Ha o

yce opoa,

oopx oa

pae e aa

pyc oea

Ha oe coa

O e coe c ya

eo e aa...

pe 3 paa.

Solo:

.1|-------------------------------------------

.2|-------------------------------------------

.3|-------------------------------------------

.4|------------------10--------------10-------

.5|----12-13-12-13------12-13-12-13-----------

.6|-10-----------------10---------------------

.1|-------------------------------------------

.2|-------------------------------------------

.3|-------------------------------------------

.4|-----------10----------15-13-12-10-12------

.5|---12-13----13-12---------------------12---

.6|-10----------------------------------------

Ec oy o ca ce aye app, oo poco pa a

o e: Am F Dm E ..

--------------------------------------------------------------------------------

Aaa pc - Cepe

Fm

apa cepe a ao,

E

o eo o e co

Fm

coa o cepe

E7

caa oe e

Fm

, , , ,

E

, , e?

, , , ,

, , e?

Ec py ay e

opox oe e

ye ooc, e o ,

o ye y ee!

, , , ,

, , e?

, , , ,

, , e?

Cepe...

ya ce co py

apa ae po oyo

o o e a cepe

o e o e a oe

, , , ,

, , e? (4 paa)

Cepe...

--------------------------------------------------------------------------------

peaop - aay

G D Em

aea

G D Em

oco a o cee,

G D C D Em

e aa coo coe

G D C

xo o ooy y

H Em

coe poo aay.

c cpo eo,

Xo cy a oy,

Ho, e oac oeoo oa,

opaac oypy

coe pooe aay.

pe:

G D G

coe cx eecax

D C G

e oe ca

D F Am

coo a ypa

G D Em

ae oa.

e y o ceeo

C ece o oepe,

Ho oe ceo caa aepe -

He eca ye pa,

e pooe aay.

A o c a e coace,

yc apy a ocy:

ac o - , a,

Ho oe a o y

a poy aay,

pe:

e coe cx eecax

e oe ca

coe a ypa

ae oa.

--------------------------------------------------------------------------------

C - co

p pacpocpae cca a aopa oopa ca www.pesni.ru - oaea

Em B

e a o, a o. o ceeo oo o.

Em B

co ,

co ,

co . op o,

Em B

Cepa e. ce a coo, ce a poco.

y op ococ. o pe oe eeo o

Em B

co , (op oa..)

co , (op oa..)

co , op o

Solo x2

1:| -3--2--0-----------3--2--0--2--7-----3--2--0--2--3--2--0--------

2:| ----------4--0--------------------------------------------4--0--

Em B

e a o, a o. o ceeo oo o. A

Em B

co ,

co ,

co . op o.

--------------------------------------------------------------------------------

aa ee - e (epc)

Cm# D Hm Cm#

C, apa ay a oo oce ce.

ee coe, oc c pee pee.

e, a oo cope, a paco e a ee pe.

oc e, e o oey a o e pey.

pe:

Cm# G# A Fm#

- , e - a - a ,

ae e

Ceo a.

Hm Dm

aa o y p.

C, apa ay a oo ep yo

xoy caee, xoy c oo c ae e.

e ooy, o c e pyc co ap eo

e ce ya, ye oa, oa e yy.

a pee oy a 3 oyoa, o ec Em-H-C-Am, oo Dm-A-B-Gm ye o

oa

--------------------------------------------------------------------------------

a Caoo - oa

Em

oa ae eca,

Am

cep ope

opa o

H

ce ppa opa.

Em

cee cpax

Am

oe peo

pe yca

H

Coa y pa.

pe:

Em Am G F# H Em

e ayy o ee oa, oa, oa

Am G F# H Em

C oo yy o oa, o oa, o oa, o oa.

p apa

Coe co ce cea,

ycoo epa

ao co oa.

pooo

pooac o oc

a yoo y

a ey o.

--------------------------------------------------------------------------------

Oea - oi ee ea

Intro: Dm Em Fm Gm [x2]

Verse:

Dm Em

ico c, ooa o

Fm Gm Fm Em Fm

I e yci o--

Dm Em

Ci oo c?

Fm Gm Fm Em Fm

Ci a a.

Dm Em

e a, o e ay

Fm Gm Fm Em Fm

e y a--

Dm Em Fm

Hi a, oa ia, oa caa,

Chorus:

Gm Fm Em Fm Dm C#m Cm

o e-e e-a.

Bsus2 A#sus2 Asus2

o e-e e-a.

[Intro]

Verse:

e xooa o oa i a ayi i.

oay ocae i e e ci.

ico c, ooa o i e a , y oi

oe oo, oe ao, aa caa

[Chorus]

Solo:

G|-------------------------------------------------------------

D|--------3-----------------5---------7---------------------8--

A|--5-5-5-----5---7-7-7-8-------8-8-8-----8---10-10-10-12------

E|-------------------------------------------------------------