( )

A                                                   

INTRO: Riff A

VERSE:

Ebm Db Ebm Db

Wish I was too dead to cry

Db

as self affliction fades

Ebm Db Ebm Db

Stones to throw at my creator

Db*

mascicists to which i cater

CHORUS:

Ebm Db

you don\'t need to bother,

Ebm Bb

I don\'t need to \"breathe\" <---or \"Be\"

Ebm Db

I\'l keep slippin\' farther,

B Db Ebm Db

Once I hold on, I won\'t let go till it bleeds.

VERSE 2:

wish i was too dead to care,

if indeed i cared at all

never had a voice to protest

so you fed me \"shared to digest\" <---not exactly sure of the lyrics there

BRIDGE:

Ebm

I wish i had a reason

Bb

my thoughts are open season

B

for this i gave up trying

Db

one good turn deserves my dying

CHORUS

INSTRUMENTAL BREAK (fool around w/ variations to Riff A)

VERSE 3:

Wish I died instead of lived

a zombie hides my face

shelf-forgotten with its memories

diaries left w/ cryptic entries

CHORUS 2x

Last Line:

Once I hold on, I never look down my deceased.

Ebm: x68876

Db: x46664

Bb: 688766

B: x24442 or 799877

Riff A:

-6-4----------------

-7-6-7h8p7----------

-8-6-------8-6---6--

-8-6-----------8----

-6-4----------------

--------------------

Db*

-x-x-x-x-x-x-x-x-x-x-x-x-x-x-x-x-------

-x-x-x-x-x-x-x-x-x-x-x-x-x-x-x-x-------

-6-6-6-6-6-6-6-6-6-6-6-6-6-6-6-6-------

-6-6-6-6-6-6-6-6-4-4-4-3-3-3-3-3-------

-4-4-4-4-4-4-4-4-4-4-4-4-4-4-4-4-------

-x-x-x-x-x-x-x-x-x-x-x-x-x-x-x-x-------

ce xa c aa (co)