( )

A                                                   

5'nizza

Riff1

e|------------------|------------------|--

b|------7-7-7-7---7-|------7-7-7-7---7-|--

g|------6-6-6-6---6-|------6-6-6-6---6-|--

d|------7-7-7-7---7-|------7-7-7-7---7-|--

a|5-----------------|5-----------------|--

E|--------------5---|--------------5---|--

Caa, eya opaa . p pao,

ce pe ao oo-ooa po

Riff2

e|------------------|------------------|--

b|------5-5-5-5---5-|------5-5-5-5---5-|--

g|------4-4-4-4---4-|------4-4-4-4---4-|--

d|------5-5-5-5---5-|------5-5-5-5---5-|--

a|3-----------------|3-----------------|--

E|--------------3---|--------------3---|--

a xoe o pyo,

e co oo ea ooo a...

-------------------------------

pee a coax .Come on baby light my fire.

paec EPEOPO a Riff1, aee caap Riff2

a yeax.

oe a e aec ooe o caapx po ey.

P.S. ca a o a a paoe, ap o pyo e,

ec o e a . pyaec, cpa!