( )

A                                                   

Intro:

Am Dm - 2 paa

E||-----------------|----------------------|--7---------5---------||

B||------------!----|------------6---------|-------6---------5----||

G||-------2---------|-------7---------7----|----------------------||

D||--2--------------|--7-------------------|----------------------||

Am

o xo-ey a

Dm

ea ae op?

oya: eo ae,

A oa oo coa,

ie a axi co,

oa oi i.

i i eo - , o ae -

i i eo - , o ae -

pe:

Dm E Am F

oy ooc i

Dm E Am F

oy ooc i

Dm E Am C F

oy ooc i

Dm E

Guitar solo:

E||----------10-----8---7-------------------12-----11----10-----|

B||------10----------------------------10--------------------10-|

G||--9-----------------------9-----10---------------------------|

E||----------10-----8---7------------------7-----|-----------4--||

B||------10---------------------------5----------|-----3(5)-----||

G||--9-----------------------9---7---------------|-4------------||

OR

E||----------8------8---7-------------------12-----12---10------|

B||-----10------------------10--------10---------------------12-|

G||--9----------------------------10----------------------------|

E||----------8------8---7---10-------------7----|------------6--||

B||-----10----------------------------9---------|-------8-------||

G||--9---------------------------8--------------|--8------------||

* 2 paa

aac a ei

i co, i a

yy x ya,

ya i .

i aao x aec -

Cepe x ye o.

i eo ai ae,

ae e oa coa -

pe.

Solo piano:

E||-10---------------|--12----------------|-10---------------|

B||-------10----9----|--------13----------|-------10----9----|

G||------------------|--------------14----|------------------|

--12---------------------|-10-------------|--12----------13-||

-------13----------------|------10---9----|--------13----13-||

-------------14----------|----------------|--------------14-||

-------------------14----|----------------|-----------------||

Guitar solo.