( )

A                                                   

Oea E

"911"

-----

transcribed by Cyclone

text by Alexey Buhantsoff

Intro: Cm Csus4

Verse:

Cm Cm Csus4 Csus4

o oca o, o aa, o aa,

i ac o, o ea, a ca ey a.

e:-------3------;---------1---------3-------1-------

B:-----4--------:-------1-------1-------1-------1---

G:-3h5----------:-1---------------1-------1-------1-


e i i xae ac, a oo eo oe,

Aooi ye y ac, oe coe.

Chorus:

Cm D# Gm Cm

e o, i e oa

Ci e, ci a

e oa, i e o,

i eeo - 911

[Intro]

Verse:

i - caca ci',

o aa i aa

oe i, a oe o, o ea,

Ha ey a

Verse:

Xo e ay, cooi o ac,

axoe oci, axoe oci,

Ca i i oe i ac

oc oay, a

[Chorus]

Cm Csus4 D# Gm

B:----------4-:----------6-:----------8-:----------3-

G:-------5----:-------5----:-------8----:-------3----

D:----5-------:----5-------:----8-------:----5-------

A:-3----------:-3----------:-6----------:------------

E:------------:------------:------------:-3----------

/max0n

--- mp3: www.mp3.com

* Origin: [5011] [_c_] (2:5011/105.30)

- MY.SONGS (2:5020/2015.11) ---------------------------------------- MY.SONGS -

Coo : 31 145

O : Nick Maximenko 2:5011/105.30 09 A 01 23:57:26

oy : all 11 A 01 04:58:36

ea : epa - a

-------------------------------------------------------------------------------

@realname oa pe aceo # pag 642-642 # 6059

originally by: Slav Corbin (2:5020/400), 07 aug 01 02:25.

Zepa "a"

transcribed by Cyclone

Intro:

e:-0h1h3-------------:-0h1h3-----------------------0----0----------

B:-------1-----------:-------1--/12--12-1210---10---10----10-108-

G:-------------------:---------------------------------------------

D:-------------------:---------------------------------------------

A:-------------------:---------------------------------------------

E:-----------3---3h5-:---------------------------------------------

e:-0h1h3---------------------------:-0h1h3-----7-----7h5-

B:-------1-------------------------:-------1-------------

G:---------------------------------:---------------------

D:---------------------------------:---------------------

A:---------------------------53---:---------------------

E:-----------3-3---3-3h5---------5-:---------------------

[aee Intro a pa paec o-pyoy]

Verse:

C (Cmaj7) Cmaj7 Bsus4 Am/C

Xa-a o -0- -x- -0-

Am -0- -5- -1-

Xa-a xee -0- -4- -2-

, o -2- -4- -2-

Oae e -3- -2- -3-

Bsus4 -0- -x- -x-

ae eo

Am/C

e yeae

G#

ee, aepoe

Dm7 G

Xa-a

Chorus:

C Em Em7 Am7

ye a -0- -0-

Dm G C Em -3- -1-

o opo ye a -0- -0-

Dm G -2- -2-

eeo, copo -2- -0-

E5 Em7 Am7 -0- -x-

Ha eppoax, e:-0---0-----0-

B:-3p1-0h1p0-1-

Ha apopoax,

Ha ocaoax,

F Em C

ae o - o - a

e:--------5---3-------

B:--------------/5----

G:-----------------5--

epexo Intro:

A:-----0-3--

E:--3-------

[Intro]

Verse:

Xa-a y

Xa-a ae

aoe y

aa c

e o eo

C p yea

poco oaea

xa-a

[Chorus]

[Intro]