( )

A                                                   

ecac Cya - Ce e

Chords by Alexey Fadeyev & Sergey Fadeev (5020/738.55)

yco ey ^ oopec a.

1)-----------4-0-----0-----------------0-3-7-3-----3-0-------0-1---1-3-6-(10)-

2)---------------------2-----1-2-4-0-3---------0-2-----0-2-3-----3------------

3)-0-1-2-0-1-----1-3-----1-3--------------------------------------------------

4)----------------------------------------------------------------------------

^

1)-6-3---2-------------------4-----0-4-0-----0-4-0---0-3-0-----0-3-0-----3-----

2)-----3---2---0-2---------------2-------2-2-------0-------0-0---------3---3---

3)-----------2-------1-2-0-1-----------------------------------------3-------3-

4)-----------------4-----------------------------------------------------------

^ $

ec aaec ee/pea

1)-----3-------2---- 1)---5-4-2--------

2)---3---3---2---2-- 2)---------4------ - paec oce epoo paa

3)-3-------2-------- 3)-1-------------- aee epexo a $ ( e)

4)------------------ 4)----------------

1)-----1-2-4------

2)-2-4------------ - oce opoo paa.

3)---------------- ( paoc e coce yepe)

4)----------------

pe o o pa e oopa. ooe, ce o paec a yx

apax, opa o pe o-o pae, o paopa oopa

coo.