( )

A                                                   

Riff1 (Am): A5 G5 A5 A5 C5

d|-------|-------|-------|-----------|4

a|--7-7--|--5-5--|--7-7--|--7-10-10--|5


e|--5-5--|--3-3--|--5-5--|--5-8--8---|6

Riff2 (Dm): D5 C5 D5 D5 F5

d|--7-7--|--5-5--|--7-7--|--7-10-10--|4

a|--5-5--|--3-3--|--5-5--|--5-8--8---|5

e|-------|-------|-------|-----------|6

Riff3 (E): d d d u d d d u (d[down] - yap , u[up] - epx)

e|------0-0-------0-0----|1

b|------0-0-------0-0----|2

g|------1-1-------1-1----|3

d|------2-2-------2-2----|4

a|-----------------------|5

e|--0-0-------0-0--------|6

cyee ce pop a \"a-a-a\" : Riff1

Riff1 Riff1

aaaey co co aa oca,

Riff1 Riff2

po aaoy ay a ecey co.

Riff1 (aaac a opo D5)

a ecey co, a ecey co...

Riff3 Riff1

(A a ecey co!)

Coe ceo a peo, a pe a oo,

pxoe, caap, ocope, ao.

ocope, ao, ocope, ao...

(A ocope, ao!

a-aa-aa-aa-aa-aa!)

o paec -a op epca, a op,

y eo apoo oo, o ye e yop.

O ye e yop, o ye e yop...

(A o ye e yop!

a-aa-aa-aa-aa-aa!)

o a ecay ey paay ooy,

aa-epcaa oo yoy,

aeco yoy, aapo yoy...

(A-aaaco yoy!

a-aa-aa-aa-aa-aa!)

aa xpya co, pa oe acoco.

ooa yxo oo cpyo eco.

oo cpyo eco, oo cpyo eco...

(A oo cpyo eco!

a-aa-aa-aa-aa-aa!)

Xpa aoo o, aax a o...

pea copee, oop, oe, e e?

oe, e e, oe, e e?

A oe, e e!

(a-aa-aa-aa-aa-aa!)

Riff4

aaaey co co aa oca,

Riff5

po aaoy ay a ecey co.

Riff4

a ecey co, a ecey co...

(A a ecey co!)

Riff4 (Am): Riff5 (Dm):

e|----0-----0--|1 e|----1-----1--|1

b|----1-----1--|2 b|----3-----3--|2

g|----2-----2--|3 g|----2-----2--|3

d|--------2----|4 d|--0----------|4

a|--0----------|5 a|--------0----|5

e|-------------|6 e|-------------|6