( )

A                                                   

Aop: ac + axp - \"cey co pe\"

Aop oopa : Aecap oee

pop: |Dm|C|G|Am|+Solo-1

Dm

1 |---------5-----

|------------6--

|------7--------

|---------------

|---5-----------

6 |---------------

C

1 |---------3-----

|------------5--

|------5--------

|---------------

|---3-----------

6 |---------------

G

1 |---------3-----

|------------3--

|------4--------

|---------------

|---------------

6 |---3-----------

Am

1 |---------0-----

|----------1----

|------2----2---

|---------------

|---0-----------

6 |---------------

Solo-1:

1 |------------7--10-----10-----9--10--9--7--------------7--10-----10-----12--10--9----7----|

|---5--7--8-----------------------------------5--7--8-------------------------------------|

|-----------------------------------------------------------------------------------------|

|-----------------------------------------------------------------------------------------|

|-----------------------------------------------------------------------------------------|

6 |-----------------------------------------------------------------------------------------|

ye 1:

C

|---------0--------0--

|---------1--------1--


|------0--------0-----

|------------2--------

|---3-----------------

|---------------------

G

|---------3--------3--

|---------0--------0--

|------0--------0-----

|---------------------

|------------2--------

|---3-----------------

Dm

|---------1--------1--

|---------3--------3--

|------2--------2-----

|---0-----------------

|------------0-------

|---------------------

Am

|---------0--------0--

|---------1--------1--

|------2--------2-----

|------------2--------

|---0-----------------

|---------------------

C G

Co o o eoc,

Dm Am

a o c e ea

C G

co opoc

Dm Am

ya e oea

Dm C (ec aop: Dm/C/G - epyc a 5- 3- aax cooeceo,a aop Am - a epo

ay)

e oe ac, (epeop ao, a pope)

G Am

A c e o oa

Dm C

eae ep

G Am

o ce po

pop.

ea a,

E e op.

e e p,

a ao.

oo pye pa,

pyo o ceoc

eepy a,

C ypa o cepoc.

pop.

a pe eo

cey co pe

C oo o eo

ee o epa

Co o o xoo

eae ac

epe ooc,

cae a.

pop: |Dm|C|G|Am|+Solo-1 - 3 paa,

|Dm|C|G|Am|+Solo-2 - 1 pa.

Solo-2:

1 |-----------------------------------------------------------------------------------------|

|-----------------------------------------------------------------------------------------|

|-----------------------------------------------------------------------------------------|

|-------------9--12-----12-----11--12--11--9---------------9--12-----12-----14--12--11--9-|

|---7--9--10-------------------------------------7--9--10---------------------------------|

6 |-----------------------------------------------------------------------------------------|