( )

A                                                   

 

Song:aoco 2000
E -------------|-------|-----------|-------|------|------|------|-----
B -1-1-1---1-3-|-1-0-1-|-1-1-1-1-3-|-1-0-1-|------|------|------|-----
G -------2-----|-------|-----------|-------|------|------|------|-----
D -------------|-------|-----------|-------|------|------|------|-----
A -------------|-------|-----------|-------|------|------|------|-----
E -------------|-------|-----------|-------|------|------|------|-----

E -|------|------|------|------|------|------|------|------|------|---
B -|------|------|------|------|------|------|------|------|------|---
G -|------|------|------|------|------|------|------|------|------|---
D -|------|------|------|------|------|------|------|------|------|---
A -|------|------|------|------|------|------|------|------|------|---
E -|------|------|------|------|------|------|------|------|------|---

E ---|------|------|------|------|------|------|------|------|------|-
B ---|------|------|------|------|------|------|------|------|------|-
G ---|------|------|------|------|------|------|------|------|------|-
D ---|------|------|------|------|------|------|------|------|------|-
A ---|------|------|------|------|------|------|------|------|------|-
E ---|------|------|------|------|------|------|------|------|------|-

E -----|-3---3---3-----3---3---3---3-|------|------|------|------|----
B -----|---5---5---5-5---5---5---5---|------|------|------|------|----
G -----|-----------------------------|------|------|------|------|----
D -----|-----------------------------|------|------|------|------|----
A -----|-----------------------------|------|------|------|------|----
E -----|-----------------------------|------|------|------|------|----

E --|------|------|------|------|------|------|------|------|------|--
B --|------|------|------|------|------|------|------|------|------|--
G --|------|------|------|------|------|------|------|------|------|--
D --|------|------|------|------|------|------|------|------|------|--
A --|------|------|------|------|------|------|------|------|------|--
E --|------|------|------|------|------|------|------|------|------|--

E ----|------|------|------|------|------|------|------|------|------|
B ----|------|------|------|------|------|------|------|------|------|
G ----|------|------|------|------|------|------|------|------|------|
D ----|------|------|------|------|------|------|------|------|------|
A ----|------|------|------|------|------|------|------|------|------|
E ----|------|------|------|------|------|------|------|------|------|

E ------|------|------|------|------|------|------|---|-------3-|----|
B ------|------|------|------|------|------|------|---|-1---1---|-12-|
G ------|------|------|------|------|------|------|-2-|---2-----|----|
D ------|------|------|------|------|------|------|---|---------|----|
A ------|------|------|------|------|------|------|---|---------|----|
E ------|------|------|------|------|------|------|---|---------|----|

E -7-3-------|-7-7-3-------|---------3-|-7-|-7-3---------|-----7-|
B -----3-3-3-|-------3-3-3-|---1---1---|---|-----3-3-3-1-|-0-3---|
G -----------|-------------|-2---2-----|---|-------------|-------|
D -----------|-------------|-----------|---|-------------|-------|
A -----------|-------------|-----------|---|-------------|-------|
E -----------|-------------|-----------|---|-------------|-------|
Solo was written by a oeo. Nickson_84@mail.ru
ep oopae o co, ec oc opa ae a.