( )

A                                                   

Intro:
<Am F>
D|-3-3-0-2---2-----0-0-------------0-0---------------------------
A|---------------3-----2-3-------------2-3---3---0-2-2---0-------
E|-----------------------------------------------------3---------
| | | | | | | |
G Am
G|-------------------------------0-------------------------------
D|-------------------0-0-2-2-3-3---3-3-0-2---2----0-0------------
A|-------0-0-2-2-3-3----------------------------3-----2-3--------
E|---3-3---------------------------------------------------------
| | | | | | | |

D|-------------------------------
A|-----------------2-------------
E|-------------------------3-----
| | | |
Bridge:
Am G Dm F Am G Dm F Am
E|-------------------------------------------------------0-1---1-0 ---
B|-----------------------------------------------202-------------- -2-
G|-2-------0-------0-----2-3/5-3-2-2------/5---------------------- ---
| | | | | | | | | | | | | | | | |
Verse1:
<Am G Dm F>
po e a ca, yaa, ya o,
Oa epa acea, o e cax e oo.
pox e e epy, e pya aoo ay,
Ho e e eeo y, a c coa oa py.
Chorus:
<Am F C E>
Hoa ya ape ocea eoco,
Ho e ye e ep, - a oa eo e ece
Bridge (Oa... )
Verse2:
ea o ape, o oex caax, (ax... )
Ho o ce po ee popax cax.
ca eco e e y eoea e, -
o cace a ee o oa e e.
Chorus (x2)
Bridge
ec oe xopoa, a aop c o.caa www.mumiytroll.com
***epa*** (ICQ 266579737)