( )

A                                                   

 

y po - apaaa e

Intro guitar (play 4 times)

medium distortion
4|---------4----------4----------4----------4----|
5|---------4----------4----------4----------4----|
6|-0--2-2--2--0--2-2--2--0--2-2--2--0--2-2--2----|

Bass (after 2-nd time of Intro)

4|-0--2-2-----0--2-2-----0--2-2-----0--2-2--------|

Main guitar theme
(something like this)
dist.
F#m A E E
1|-------------------------0--------------0---------------0--------|
2|---------2--2--1-------2---2----------0---0-----------0---0------|
3|-----2---2--2--2-----2-------2------1-------1-------1------------|
4|--4----------------2--------------2---------------2--------------|

Main bass
4|-0--2-2--0--2-2--0--5-5--4--5-5--4--0-0--0--0-0--0--0-0--0--0-0--|

Rhytm
F#m A E E
4|-4-4-4-4-4-4-4-4--7-7-7-7-7-7-7-7--2-2-2-2-2-2-2-2-2-2-2-2-2-2-2-2---------|
5|-4-4-4-4-4-4-4-4--7-7-7-7-7-7-7-7--2-2-2-2-2-2-2-2-2-2-2-2-2-2-2-2---------|
6|-2-2-2-2-2-2-2-2--5-5-5-5-5-5-5-5--0-0-0-0-0-0-0-0-0-0-0-0-0-0-0-0---------|

F#m A
apaaa e ye, c yoe ceax
E
oop oo papa a ac.
F#m A
oeae eec ycoxxc oax
E
ae a aoy oapae cpac.

D F#m
apaaa e ye. apaaa e!
D E
apaaa e ye.apaaa e!

F#m C#m
ac ooa, ooa
A H
Py a ae a cpey pa
F#m C#m
y a, aep epo.
A H
Haepoe, o, oa oeo.

D F#m
Ho apaaa e ye.apaaa e.
D E
Ho apaaa e ye.apaaa e!

e oea popac e ca
Co o aa oce a
oceey ay paco ce
e oooc a apy ocoo y.

Ho apaaa e ye
apaaa e!
Ho apaaa e ye
apaaa e!

ac ooa, ooa
Py a ae a cpey pa
y a, aep epo.