( )

A                                                   

 

Song:Copoc coo
E -----|-0-0---0-|-----|---|-----|---------|-----|---|------|---0-0---
B -1-0-|-----3---|-3-1-|-3-|-1---|---------|-----|-1-|------|-0-----3-
G -----|---------|-----|---|---1-|-1-1-3-1-|-1-0-|---|------|---------
D -----|---------|-----|---|-----|---------|-----|---|------|---------
A -----|---------|-----|---|-----|---------|-----|---|------|---------
E -----|---------|-----|---|-----|---------|-----|---|------|---------

E 0---|---|-----|-----|---------|-----|------|------|------|------|---
B --3-|-1-|-1-3-|-1---|---------|-----|------|------|------|------|---
G ----|---|-----|---1-|-1-1-3---|-1-0-|------|------|------|------|---
D ----|---|-----|-----|-------6-|-----|------|------|------|------|---
A ----|---|-----|-----|---------|-----|------|------|------|------|---
E ----|---|-----|-----|---------|-----|------|------|------|------|---

E -|-0-0---0-|-----|---|-----|---------|-----|---|------|------|------
B -|-----3---|-3-1-|-3-|-1---|---------|-----|-1-|------|------|------
G -|---------|-----|---|---1-|-1-1-3-1-|-1-0-|---|------|------|------
D -|---------|-----|---|-----|---------|-----|---|------|------|------
A -|---------|-----|---|-----|---------|-----|---|------|------|------
E -|---------|-----|---|-----|---------|-----|---|------|------|------

E -|------|------|------|------|------|------|-----|-0-0---0-|-----|--
B -|------|------|------|------|------|------|-1-0-|-----3---|-3-1-|-3
G -|------|------|------|------|------|------|-----|---------|-----|--
D -|------|------|------|------|------|------|-----|---------|-----|--
A -|------|------|------|------|------|------|-----|---------|-----|--
E -|------|------|------|------|------|------|-----|---------|-----|--

E -|-----|---------|-----|---|------|---0-0---0---|---|-----|-----|---
B -|-1---|---------|-----|-1-|------|-0-----3---3-|-1-|-1-3-|-1---|---
G -|---1-|-1-1-3-1-|-1-0-|---|------|-------------|---|-----|---1-|-1-
D -|-----|---------|-----|---|------|-------------|---|-----|-----|---
A -|-----|---------|-----|---|------|-------------|---|-----|-----|---
E -|-----|---------|-----|---|------|-------------|---|-----|-----|---

E ------|-----|
B ------|-----|
G 1-3---|-1-0-|
D ----6-|-----|
A ------|-----|
E ------|-----|
Solo was written by a oeo. Nickson_84@mail.ru
ep oopae o co, ec oc opa ae a.