( )

A                                                   

Solo (guitar 1&2):
E E G#m G#m
1|---------------|---------------|---------------|---------------|
2|---------------|---------------|---------------|---------------|
3|-9-9-8-8-------|-9-9-8-8-------|-9-9-8-8-------|-9-9-8-8-------|
4|---------9-9-6-|---------9-9-6-|---------9-9-6-|---------9-9-6-|
5|---------------|---------------|---------------|---------------|
6|---------------|---------------|---------------|---------------|
A# A# D# D#
|---------------|---------------|---------------|---------------|
|---------------|---------------|---------------|---------------|

|---------------|---------------|---------------|---------------|
|-----5-5-6-6-8-|-----5-5-6-6-8-|-----5-5-6-6-8-|-----5-5-6-6-8-|
|-6-6-----------|-6-6-----------|-6-6-----------|-6-6-----------|
|---------------|---------------|---------------|---------------|
E E G#m G#m
|---------------|---------------|---------------|---------------|
|---------------|---------------|---------------|---------------|
|-9-9-8-8-------|-9-9-8-8-------|-9-9-8-8-------|-9-9-8-8-------|
|---------9-9-6-|---------9-9-6-|---------9-9-6-|---------9-9-6-|
|---------------|---------------|---------------|---------------|
|---------------|---------------|---------------|---------------|
A# D# F# D#(!)
|---------------|---------------|-----------------|
|---------------|---------------|-----------------|
|---------------|---------------|---------------9-|
|-----5-5-6-6-8-|-----5-5-6-6-8-|-----6-6-8-8-8---|
|-6-6-----------|-6-6-----------|-7-7-------------|
|---------------|---------------|-----------------|
E
paaoy cey p oc ea
G#m
ocep accapo, c a pooax
A# D#
a co cye o acce
F# C
O cea a, c aa e
E
cae y ey oea
G#m
ya e ce, o oaae
A# D#
oepac, caa aape eepa
F# D# F#(!!!)
epeca a, ac e poepa
Chorus:
Bm F#m
, pepaaec
Em
Cpaec a ac poco o opoy
D F#(!!!)
eec oo
Bm F#m
, pepaaec
Em
aec o caoc e xaae c
D F#
poco oyc caa oep ope
Solo (guitar 1&2).
poe o e opo, a e oa
o e aa ao e
ae a e ea, o aaoa oyx y e p
aoeo, ycaa, y , y o
y ocae y o ceyeo oea
poco pacca, poco cop
ae ece a aape eepa
epecx e, p e oepa (!!!)
Chorus.
Solo (guitar 1&2).

Bm F#m
pepaaec
Em
Cpaec a ac poco o opoy
D F#
eec oo
Bm F#m
pepaaec
Em
aec o caoc e xaae c
D F# Bm(!)
poco oyc caa oep oep ...
E Em G#m A# D# F# C Bm F#m D
|-0-|-0-|-4---|-6-----|-6---|-2-----|-3---|-2-----|-2---|-5---|
|-0-|-0-|-4---|-6-----|-6-8-|-2-----|-3-5-|-2-3---|-2---|-5-7-|
|-1-|-0-|-4---|-6-7---|-6-8-|-2-3---|-3-5-|-2---4-|-2---|-5-7-|
|-2-|-2-|-4-6-|-6---8-|-6-8-|-2---4-|-3-5-|-2---4-|-2-4-|-5-7-|
|-2-|-2-|-4-6-|-6---8-|-6---|-2---4-|-3---|-2-----|-2-4-|-5---|
|-0-|-0-|-4---|-6-----|-×---|-2-----|-×---|-×-----|-2---|-×---|
(!) - yap o cpya
(!!!) - cp o (/ \ / \ / \)
opoc oea a o: ensifer@mail.ru