( )

A                                                   

yf - opo
intro
e|---0-------------------------------------0-------------0--0-------------
B|---------3a1-----1---------0h1-----------0--0----0--0--------------
G|---------------0--------------------2-------0--0------------------------
D|------2------------------2------------------------------------------------
A|--3-------------------0---------------------------------------------------
E|---------------------------------------------------------------------------
e|---0-------------------------------------0-------------0--0---------------0-------------------------------------0-------------0--0-------------
B|---------3a1-----1---------0h1-----------0--0----0--0----------------------3a1-----1---------0h1-----------0--0----0--0--------------

G|---------------0--------------------2-------0--0---------------------------------------0--------------------2-------0--0------------------------
D|------2------------------2------------------------------------------------------2------------------2------------------------------------------------
A|--3-------------------0----------------------------------------------------3-------------------0----------------------------------------------------
E|-------------------------------------------------------------------------------------------------------------------------------------------------------
eca ya ce a ococa
e|-------------------------------------------------3------------------------------------------
B|--8-------6h8---------------------3h4-----------------------3------------------3------
G|--8-----------------8---------------------5------------------------3-----------------3----
D|--8---8---------8------------5---------------------------5------------------3------------
A|--6-----------------------3-----------------------------------------------1----------------
E|------------------------------------------------------3--------------------------------------
a aa eoax
e|-------------------------------------------------3-----------------------3-------------------
B|--8-------6h8---------------------3h4-----------------------3--------------3----------
G|--8-----------------8---------------------5------------------------4--------------4------
D|--8---8---------8------------5---------------------------5----------------5--------------
A|--6-----------------------3--------------------------------------------------------------- ae a aae>>
E|------------------------------------------------------3--------------------------------------
o pocae eax eoc
ee, oeo e,
yc op o cepe cea,
yca co o apcoa o,
cea, c e a...
pe(aopa)
C Am Em
a opoo ea,
C Am Em
a pa poa,
D# Cm G B
a peeo coa
G E C Am Em C Am Em D# Cm G B D# Cm G
opa ee yy co. aaaa
A ae, ce pao yy e oe
e e cee eep.
poac a o ceo opoa.
Coe oe, pay e
ce aoopo, ye, o,
o o e
yy ca e o ce aee.
pe
C Am Em
a opoo,
C Am Em
a pa poa,
D# Cm G B
a peeo coa
G E C Am Em C Am Em D# Cm G B D# Cm G
opa ee - yy co.
e|---0-------------------------------------0-------------0--0-------------0----
B|---------3a1-----1---------0h1-----------0--0----0--0-----------1-------
G|---------------0--------------------2-------0--0-------------------0--------
D|------2------------------2----------------------------------------2-----------
A|--3-------------------0----------------------------------------3--------------
E|--------------------------------------------------------------------------------
eca ya ce a.