( )

A                                                   

intro
E|----------------------------------------|

H|----------------------------------------|
G|----------------------------------------|
D|-6-5.-6--------5---3-5-5h6.-6-6-5-3-----|
A|-----------2-3----------------------6-3-|
E|----------------------------------------|
E|-----------------------------------------|
H|-----------------------------------------|
G|-----------------------5h6---------------|
D|-6-5.-6--------5---5-6----3------6-5-3.3-|
A|-----------2-3---------------------------|
E|-----------------------------------------|
Em
apaac-apaac opoy ac
C
ypeap yea yc
Am
acco a a e
Em
poaa co xoc
Em
opo y opa p
C
Opy aax y
Am
A acc a o paca po
H
Ceoe co e
Em Hm
ep y, ep o
C G
o eceey Apay e
Em Hm
ep y, ep ce
Am C
o ec o ee oo e
Em Hm
ep y, ep o
C G
o eceey Apay e
Em Hm
ep y, ep ce
Am C Em
o ec o ee oo e
opo apo e yeppo,
A o aa ce aco ,
o eepa o TV caa,
o a apce e ye .
ypac aep aea cop
O coo, o po y,
A ecp oop p,
a oax pa .
pe.