( )

A                                                   

py - a pya (Intro solo)
1|------------------------------------------------------------------------------
2|------------------------------------------------------------------------------
3|------5--------------------3h5h3h5h3h5h3h5h3h5h3h5h3h5-5^-5555-3h5h3-------3--
4|-<<<<-5--3h5h3h5h3h5h3h5^^------------------------------------------5-3h5h3-5-
5|-<<<<-3-----------------------------------------------------------------------
6|-<<<<-------------------------------------------------------------------------
1|--------------------1414141414141414141414-12-10^-10h12h10h12^--10h12h10-10^--
2|------------------------------------------------------------------------------
3|---------------5^-------------------------------------------------------------
4|-3h5h3h5-------5^-------------------------------------------------------------
5|---------5-3^^-3^-------------------------------------------------------------
6|------------------------------------------------------------------------------
1|-10h12h10---------------------------------------------------------------------
2|---------1210h12h10-----------------------------------------------------------
3|-------------------1210h12h10----------10h12h10h12^--10h12h10-----------------
4|-----------------------------1210h12h10----------------------10h12h10h12-14p--
5|------------------------------------------------------------------------------
6|------------------------------------------------------------------------------
1|--------------------------------------|
2|-14p14p14p14p14p14p14p14p14^^---------|
3|-----------------------------------5--|
4|------------------------------<<<<-5--|
5|------------------------------<<<<-3--|
6|------------------------------<<<<----|
OOAE:
h - xaep ("ooo")
^ - oy cpyy
p - oy y e py
<< - ca eaopo
oopa IVIL