( )

A                                                   

C ex op, a o ye
Cao
Cao (2)
Cao (2)
Cao (3)
Cao (intro)
Cao
Cao epea
Cao epea (2)
Cocca
Copae
Copae (2)
Copae (3)
Coee
Co op
Cep xae
Cep xae (2)
Cea eep
Cea eep (2)
Ceo Coe
Ceo Coe (2)
Ceo Coe (3)
Cape ac
Cape ac (2)
Cape ac (3)
Eaepa
E co y
Haae
Heeca aaa
Oxo
Oxo (2)
Oxo (cyee)
O e pyo ooa
O e pyo ooa (2)
Oe ac
Oe ac (2)
Oe - a ec
Paop -a a
Paoop c oo
Poa
Poa (2)
Poa (4)
Poa (5)
Poa (6)
Pa
Xoooe eo
ea
poa cap
poa cap (2)
ya e
oe cyea
oe cyea (2)
ae aa
ecee po
epa ea
ea Oce
ocoae o o
ocoae o o (2)
ocoae o o (3)
ocoae o o (coo)
ocoa o epo ee
op, pa pa
oo
opaee oya
opaee oya (2)
oocopa
oocopa (2)
oa opy
oa opy (2)
oa opy (3)
o Xoo
o Xoo (2)
o Xoo (coo)
eaa ooa (intro)
eca
epx Cep
epx Cep (2)
oe o
ya
ya (2)
ya (3)
eya pa
e a cae
ypa o
ypa o (3)
ypa o (2)
ypa o (po)
ypa o (po)(2)
a opa oea
a pya
a pya (2)
a pya (3)
a pya (4)
a oaxa oy o
a oaxa oy o (2)
yxoo opc
a, e Py !
a, e Py ! (2)
a, e Py ! (3)
a, e Py ! (4)
a, e Py ! (5)
ae o
ape Oa
ape Oa (2)
a Ce
oe ye
oe aa
c ya
cpye
apay
ae o ooe
ae o ooe (2)
opo y
oe oooa
ye
ya
yo eap
ya oya
ya oya (2)
ya oya (3)
ya oya (coo)
o o c pya
ec
ec (3)
ec (4)
ec (5)
ec (cyee)
ec - 2
ece Pao
e Oec
e Oec (3)
e Oec (2)
o poeep
acep paae oc
acep paae oc (2)
acep paae oc
ap
ee
ee (2)
ee (3)
ee (4)
ee (5)
ee (6)
ee (7)
ee (8)
o Xapaep
oo
̸p Aapxc
̸p Aapxc (4)
̸p Aapxc (2)
̸p Aapxc (3)
̸p Aapxc (intro)
a ee
aae
eeca aaa
eeca aaa (2)
epoa
epoa (3)
epoa (2)

ape e
aa Cee
aa Cee (coo)
ecea oo ea
ecea oo ea (2)
ecea oo ea (3)
ec yeepo
oxopo aa
oxopo aa (2)
oxopo aa (3)
oo e!
o c ope pee
o c ope pee (2)
o c ope pee(coo)
pepaa o Apya opa
pepaa o Apya opa (2)
pepaa o Apya opa (3)
peca
po aa
poa coopox
po cap o
po cap o (2)
po cap o (3)
po cap o (4)
po cap o (5)
po cap o (6)
po cap o (7)
py co ca
py co ca (5)
py co ca (2)
py co ca (3)
py co ca (4)
pa
o epe
o epe (2)
o epe (3)
a
a (7)
a (2)
a (3)
a (4)
a (5)
a (6)
!
oe
oe (2)
oe (3)
oe (4)
oe (intro)
pe Pacce
o e a
ap oyo

ape Oa - opo y

 

cpye: apa.

Aop ayayp:

e_ey; penb@mail.ru;

11-12.05.2002

 

peae:

apc py - o ex apco, oope coaa oo ya ooo coo cpyyp, ooy

aypoae eo ao ec eo opecoe. a o coey p y ayaypy a ocoy cocex

ca. ooe oe ec ee opaec Coo 2 cye. cyee pa a xoe, aoe

coa apo.

a XO!

 

1 2 3 4 5 6

Cpo: E B G D A E

 

Ooae:

/ - ocxo ca

\\ - cxo ca

b - e

r - e c opao

H - aypa aoe

pm - yee ao

x - yee cpy

 

 

 

cyee:

|-------------------------|--------------------------|

|-------------------------|--------------------------|

|---7----7----x--7--5--7--|----7--x--7--5--5--7--7-7-|

|---7----7----7--7--5--7--|----7--7--7--5--5--7--7-7-|

|---5----5----8--5--3--5--|----5--8--5--3--3--5--5-5-|

|-------------------------|--------------------------|

 

 

1 pa. 2 3 pa.

|------------------------| |-----------------------| |--------------------------|

|------------------------| |----5--------------x---| |-------x-----x-----x------|

|--7----7-------5--5--7--| |----5----7----5----x---| |----7--x--5--x--7--x--7-7-|

|--7----7----7--7--5--7--| |---------7----5----7---| |----7--x--5--x--7--x--7-7-|

|--5----5----8--5--3--5--| |-------------------5---| |----5--x--3--x--5--x--5-5-|

|------------------------| |-----------------------| |--------------------------|

 

 

4 pa.

|--------------------------------|

|--------------------------------|

|----7-7-7-7-7-7-7-7-7-7-7-7-7-7-|

|----7-7-7-7-7-7-7-7-7-7-7-7-7-7-|

|----5-5-5-5-5-5-5-5-5-5-5-5-5-5-|

|--------------------------------|

 

 

pop:

|------------------------|---------------------------|-----------------------|

|------------------------|---------------------------|-----------------------|

|------------------------|---------------------------|-----------------------|

|--7----7--7--7--7-------|---------------------------|--7----7----7--7-------|

|--5----5--5--5--5----5--|----5--5--5-5-5--5-5-5--5--|--5----5----5--5----7--|

|---------------------3--|----3--3--3-3-3--3-3-3--3--|--------------------5--|

 

 

H H H H H H

|-------------------------|-----------------------|---------------------------|

|-------------------------|-----------------------|---------------------------|

|-------------------------|-----------------------|---------------------------|

|-------------------------|--7----7----7--7-------|---------------------------|

|----7--5--5--5--5--5--5--|--5----5----5--5----5--|----5--5--5-5-5--5-5-5--5--|

|----5--------------------|--------------------3--|----3--3--3-3-3--3-3-3--3--|

pm.

 

 

|-------------------------|

|-------------------------|

|-------------------------|

|-------------------------|

|--7--7--7--7--7--5----5--|

|--5--5--5--5--5--3----3--|

pm................

 

ye:

|--5--------5--------5-----|--5--------5--------5-----|--7--------7--------7-----|

|--3--3--3--3--3--3--3--3--|--5--5--5--5--5--5--5--5--|--5--5--5--5--5--5--5--5--|

|--------------------------|--------------------------|--------------------------|

|--------------------------|--------------------------|--------------------------|

|--------------------------|--------------------------|--------------------------|

|--------------------------|--------------------------|--------------------------|

pm.... pm.... pm. pm.... pm.... pm. pm.... pm.... pm.

 

 

|--10--------10--------10-----|--------------------------|

|--8---8--8--8---8--8--8---8--|--------------------------|

|-----------------------------|--------------------------|

|-----------------------------|--------------------------|

|-----------------------------|--5--5--5--5--5--5--5--5--|

|-----------------------------|--3--3--3--3--3--3--3--3--|

pm.... pm.... pm.

 

opa apa ocee ae yea:

|--------------------------------------|

|--10b-----10--10b-----10--10b-----10--|

|--------------------------------------|

|--------------------------------------|

|--------------------------------------|

|--------------------------------------|

 

 

pe:

|--------------------------|--------------------------|

|--------------------------|--------------------------|

|--------------------------|--------------------------|

|--------------------------|--5--5--5--5--5--5--5--5--|

|--3--3--3--3--3--3--3--3--|--3--3--3--3--3--3--3--3--|

|--1--1--1--1--1--1--1--1--|--------------------------|

 

 

 

|--------------------------|--------------------------|

|--------------------------|--------------------------|

|--------------------------|--------------------------|

|--2--2--2--2--2--2--2--2--|--3--3--3--3--3--3--3--3--|

|--0--0--0--0--0--0--0--0--|--1--1--1--1--1--1--1--1--|

|--------------------------|--------------------------|

 

 

Coo 1:

|----------------------|-------------------|-----------------------|

|----------------------|-------------------|-----------------------|

|----------------------|-------------------|-----------------------|

|-----/4----5--7---/7--|----5--------------|-----/4--4--5----4\\-2--|

|----------------------|-------------------|-----------------------|

|----------------------|-------------------|-----------------------|

 

 

 

|-----------------------|-------------------|-----------------------|

|-----------------------|-------------------|-----------------------|

|-----------------------|-------------------|-----------------------|

|-----/4--4--5----7-/9--|----7--------------|-----/4--4--5----4\\-0--|

|-----------------------|-------------------|-----------------------|

|-----------------------|-------------------|-----------------------|

 

 

Coo 2:

|----------------------|-------------------------|

|-------------------8b-|-------8r-----10h8---8---|

|--7b-------7--9-------|-------------------9---9-|

|----------------------|-------------------------|

|----------------------|-------------------------|

|----------------------|-------------------------|

 

 

 

|------------------------|----------------------------|-----------------------|

|------------------------|----------------8-------10--|--------------8----10b-|

|--7b---9h-7-----7-------|------------7h9----9h12-----|--7b-------9-----------|

|-------------7-------7--|------7--9------------------|-----------------------|

|------------------------|----------------------------|-----------------------|

|------------------------|----------------------------|-----------------------|

 

 

 

|------------------|--17--15--17--15--17--15--------|

|------------------|----------------------------15--|

|------------------|--------------------------------|

|------------------|--------------------------------|

|------------------|--------------------------------|

|------------------|--------------------------------|

 

oce ye:

|--------------------------|--------------------------|

|--------------------------|--------------------------|

|--------------------------|--------------------------|

|--5--5--5--5--5--5--5--5--|--5--5--5--5--5--5--5--5--|

|--5--5--5--5--5--5--5--5--|--5--5--5--5--5--5--5--5--|

|--------------------------|--------------------------|

pm.................................................

 

 

|-------------------|-------------------|

|-------------------|-------------------|

|-------------------|-------------------|

|--5----------------|-------------------|

|--5----------------|--------------2----|

|-------------------|--------------0----|

pm.

 

 

|------------------|-------------------|-------------------|-------------------|

|------------------|-------------------|-------------------|-------------------|

|------------------|-------------------|-------------------|-------------------|

|------------------|-------------------|--7----------------|-------------------|

|------------------|--------------5----|--5----------------|--------------7----|

|------------------|--------------3----|-------------------|--------------5----|

 

 

 

|-------------------|--------------------|--------------------------|

|-------------------|--------------------|--------------------------|

|-------------------|--------------------|--------------------------|

|-------------------|--------------------|--------------------------|

|--2----------------|--5--------5--------|--5--5--5--5--5--5--5--5--|

|--0----------------|--3--------3--------|--3--3--3--3--3--3--3--3--|

pm......................

oe:

|-------------------|--------------------|--------------------|

|-------------------|--------------------|--------------------|

|--7----------------|--7--------5--------|--4--------2--------|

|--7----------------|--7--------5--------|--5--------2--------|

|--5----------------|--------------------|--------------------|

|-------------------|--------------------|--------------------|

 

 

 

|-----------------2----|--3--2----0----------|

|------------3---------|---------------------|

|-------2--------------|---------------------|

|--0-------------------|---------------------|

|----------------------|---------------------|

|----------------------|---------------------|