( )

A                                                   

C ex op, a o ye
Cao
Cao (2)
Cao (2)
Cao (3)
Cao (intro)
Cao
Cao epea
Cao epea (2)
Cocca
Copae
Copae (2)
Copae (3)
Coee
Co op
Cep xae
Cep xae (2)
Cea eep
Cea eep (2)
Ceo Coe
Ceo Coe (2)
Ceo Coe (3)
Cape ac
Cape ac (2)
Cape ac (3)
Eaepa
E co y
Haae
Heeca aaa
Oxo
Oxo (2)
Oxo (cyee)
O e pyo ooa
O e pyo ooa (2)
Oe ac
Oe ac (2)
Oe - a ec
Paop -a a
Paoop c oo
Poa
Poa (2)
Poa (4)
Poa (5)
Poa (6)
Pa
Xoooe eo
ea
poa cap
poa cap (2)
ya e
oe cyea
oe cyea (2)
ae aa
ecee po
epa ea
ea Oce
ocoae o o
ocoae o o (2)
ocoae o o (3)
ocoae o o (coo)
ocoa o epo ee
op, pa pa
oo
opaee oya
opaee oya (2)
oocopa
oocopa (2)
oa opy
oa opy (2)
oa opy (3)
o Xoo
o Xoo (2)
o Xoo (coo)
eaa ooa (intro)
eca
epx Cep
epx Cep (2)
oe o
ya
ya (2)
ya (3)
eya pa
e a cae
ypa o
ypa o (3)
ypa o (2)
ypa o (po)
ypa o (po)(2)
a opa oea
a pya
a pya (2)
a pya (3)
a pya (4)
a oaxa oy o
a oaxa oy o (2)
yxoo opc
a, e Py !
a, e Py ! (2)
a, e Py ! (3)
a, e Py ! (4)
a, e Py ! (5)
ae o
ape Oa
ape Oa (2)
a Ce
oe ye
oe aa
c ya
cpye
apay
ae o ooe
ae o ooe (2)
opo y
oe oooa
ye
ya
yo eap
ya oya
ya oya (2)
ya oya (3)
ya oya (coo)
o o c pya
ec
ec (3)
ec (4)
ec (5)
ec (cyee)
ec - 2
ece Pao
e Oec
e Oec (3)
e Oec (2)
o poeep
acep paae oc
acep paae oc (2)

acep paae oc
ap
ee
ee (2)
ee (3)
ee (4)
ee (5)
ee (6)
ee (7)
ee (8)
o Xapaep
oo
̸p Aapxc
̸p Aapxc (4)
̸p Aapxc (2)
̸p Aapxc (3)
̸p Aapxc (intro)
a ee
aae
eeca aaa
eeca aaa (2)
epoa
epoa (3)
epoa (2)
ape e
aa Cee
aa Cee (coo)
ecea oo ea
ecea oo ea (2)
ecea oo ea (3)
ec yeepo
oxopo aa
oxopo aa (2)
oxopo aa (3)
oo e!
o c ope pee
o c ope pee (2)
o c ope pee(coo)
pepaa o Apya opa
pepaa o Apya opa (2)
pepaa o Apya opa (3)
peca
po aa
poa coopox
po cap o
po cap o (2)
po cap o (3)
po cap o (4)
po cap o (5)
po cap o (6)
po cap o (7)
py co ca
py co ca (5)
py co ca (2)
py co ca (3)
py co ca (4)
pa
o epe
o epe (2)
o epe (3)
a
a (7)
a (2)
a (3)
a (4)
a (5)
a (6)
!
oe
oe (2)
oe (3)
oe (4)
oe (intro)
pe Pacce
o e a
ap oyo

y ec cyae acc opo ya,yp ayo, ey e,aaee..G5.. paee epeopo o ex op,oa e aaec
Coo....(epeop paec a epx cpyax:6-a,5,4,3-,4-a)
1|--------------------------------------------------------1-------------------------------------------------------------1-
2|---------------------------3-------------------------------3----------------------------3-------------------------------
3|-2-3-3-3--2-3-3-3--2-3-3-3---2-3-3-3--2-3-3-3--2-3-3-3--------2-3-3-3--2-3-3-3--2-3-3-3----2-3-3-3--2-3-3-3--2-3-3-3----
4|------------------------------------------------------------------------------------------------------------------------
5|------------------------------------------------------------------------------------------------------------------------
6|------------------------------------------------------------------------------------------------------------------------
>>> opeae y eo o cyee,eo poo pa co pao POO,y e e pec opao!!!>>>
>>>popa o coo,cpo aaee pa Aop!!!o a oo popoa!!!
OAEO POCOPE A CAC AOP,O AO POPE AAC O PAO!!!
*************************************************************************
Gm
1|--3------
2|--3------
3|--3------
4|--5------
5|--5------
6|--3------
F-aec eo a ce!
Cm
1|--3------
2|--4------
3|--5------
4|--5------
5|--3------
6|--3------
Pooee yea:
A# D5 C5 G5
1)------------------------
2)------------------------
3)-3------7-----5---------
4)-3------7-----5------3--
5)-1------5-----3------3--
6)---------------------1--
aee caa:
G5 A# C5 F#5
1)------------------------
2)------------------------
3)--------------5------10-
4)-5------8-----5------10-
5)-5------8-----3------8--
6)-3------6---------------
pe:
G5 A# F5 G5
1)------------------------
2)------------------------
3)------------------------
4)-5------8-----3------5--
5)-5------8-----3------5--
6)-3------6-----1------3--
G5 A# C5 D5 G5
1)-------------------------------
2)-------------------------------
3)--------------5------7---------
4)-5------8-----5------7------5--
5)-5------8-----3------5------5--
6)-3------6-------------------3--
E o pop:
G5 F5 C5 A# G5
1)-------------------------------
2)-------------------------------
3)--------------5------3---------
4)-5------3-----5------3------5--
5)-5------3-----3------1------5--
6)-3------1-------------------3--
******************************************************************************

Gm F
Xoooe eo oe oc,
Cm F
oy eo oo.
Gm F
\" opoa, - e ce poc -
Cm F
e xa e .
>>>aee aaee o aopa,o e,c Xopoe poo y e ye e opeae ec!!!
A# D5 C5 G5
c o oo epe!
A# D5 C5 G5
o ae cey ec pee,
EC PEE!!! oc x co ec aa caa........>>>
>>>( opeao ece 1997-98-o oa Aoa\"ae o ooe\" o xopoo co):G5..A#..C5.. F#5....>>>>>
>>>oce oo a cpa oce aop,cpo pocaae eaopo o 6-o cpye,xo opeae ec oo e co,o..>>>
>>> x cyex pyo pa eo a!!C ex op,oa pye oac cpa(c 1998-o)a ec a ape paec
>>>o pyoy..>>>
>>> e yy ca opo apa,a a o ec e acaa a accex Aoax!!!
>>>cae,a ec ec a a oepe \"E co y\",oa paa oo Ao e oaa,a a,o e a oee
>>>ocya,aaa y eoaccey!!!
G5 A# F5 G5
yca aae eo o oa,
G5 A# C5 D5 G5
c poa, o poa ACEA!\"
>>>aee coa eoo popae ac cyaee o e caoe coo,oopoe aca e,a ae paee aop!!!
Gm F
o yo opo,xooo oe,
Cm F
a oe oa oa.
Gm F
, ope y, e ce oe:
Cm F
\"ae o pexa oea?\"
A# D5 C5 G5
\" c o oo epe!
A# D5 C5 G5
o ae cey ec pee,
EC PEE!!! G5..A#..C5.. F#5....>>>oo coa cpa co coee eaopa...!
G5 A# F5 G5
yca aae eo o oa,
G5 A# C5 D5 G5
c poa, o poa ACEA !
>>>oo a aao G5,eoo c pyo( ece o xopoo co) pae o ex op,oa e aaec pop....>>>
>>>...G5.....F5.....C5...A#...G5......A# G5.....F5.....C5...A#...G5....>>>
>>>ae o aa ya a o cpye... 5|3-555-3-555-3-555-3-555-EOO popae G5...oope o e pa ...>>>
EC PEE.....G5..A#..C5.. F#5....
G5 A# F5 G5
yca aae eo o oa,
G5 A# C5 D5 G5
c poa, o poa ACEA!\"
aaaec Aopo G5....
o oxoe c,y ec oopa pao 100% ..e oo pa a pyo pae e a oepax!!!
EC XOE 100%- ,OPO OOP ECE :E co ye,o poeep,ae o ooe,oe aa,O e pyo
ooa,aa cee,Cep xae,py co ca,ap oyo-OPAAEC o Apecy www.kish_my@rambler.ru A OOPA OEE
OCA O!!...>>>
a ec Paec Oe eo,xo oaca Co oo!ao o c caaa paepec! coey papa e ece c
opeao o ec!!!
a eoope ec oy aca o AC....a o e!!!