( )

A                                                   

epo acaa
Tempo: moderately fast (141 bpm)
INTRO:
(0:01 - 0:14)
RIFF 1 (play 2 times):
Gtr.1E||---------------------------------|---------------------------------|
+ H||---------------------------------|---------------------------------|
Gtr.2G||---------------------------------|---------------------------------|
D||-4-------5-------4-------7-------|-3-------------------------------|
A||-2---2-2-2---2-2-2---2-2-5-------|-1---1-1-1---1-1-1---1-1-1---1-1-|
E||-----.-.-----.-.-----.-.---------|-----.-.-.---.-.-.---.-.-.---.-.-|
Gtr.1E|----------------------------------|---------------------------------||
+ H|----------------------------------|---------------------------------||
Gtr.2G|----------------------------------|---------------------------------||
D|--4-------5-------4-------7-------|-5-------------------------------||
A|--2---2-2-2---2-2-2---2-2-5-------|-3-----------4-------------------||
E|------.-.-----.-.-----.-.---------|-------------2-------------------||
(0:15 - 0:28)
RIFF 2 (play 2 times):
Gtr.1E||---------------------------------|---------------------------------|
+ H||---------------------------------|---------------------------------|
Gtr.2G||---------------------------------|---------------------------------|
D||---------------------------------|-----------------7-------8-------|
A||-9-------10------9-------8-------|-9-------7-------7-------8-------|
E||-----7-------7-------7-------7---|-----5-------5---5-------6-------|
|| . . . . . . . . | . . . . > > |
Bass G||---------------------------------|---------------------------------|
D||---------------------------------|---------------------------------|
A||---------------------------------|---------------------------------|
E||-7---7---------------------------|-5---5-----------5-------6-------|

Gtr.1E|----------------------------------|---------------------------------||
+ H|----------------------------------|---------------------------------||
Gtr.2G|----------------------------------|---------------------------------||
D|----------------------------------|-----------------5-------7-------||
A|--9-------10------9-------8-------|-9-------7-------5-------7-------||
E|------7-------7-------7-------7---|-----5-------3---3-------5-------||
| . . . . . . . . | . . . . > > ||
Bass G|----------------------------------|---------------------------------||
D|----------------------------------|---------------------------------||
A|----------------------------------|---------------------------------||
E|--7---7---------------------------|-5---5-----------3-------5-------||
(0:29 - 0:38)
RIFF 3:
Gtr.1E|----------------------------------|---------------------------------|
+ H|----------------------------------|---------------------------------|
Gtr.2G|----------------------------------|---------------------------------|
D|------------------2---------------|-----------------2---------------|
A|--5-------4---------------5---4---|-5-------4---------------5-------|
E|------2-------2-------2-----------|-----3-------3-------3-------3---|
. . . . . . .

Gtr.1E|----------------------------------|---------------------------------|
H|----------------------------------|---------------------------------|
G|----------------------------------|---------------------------------|
D|--2-------------------------------|---------------------------------|
A|------------------4---------------|-2---------------1---------------|
E|------2---2---2-------2---2---2---|-----2---2---2-------2---2---2---|
| . . . . . . | . . . . . . |
Gtr.2E|----------------------------------|---------------------------------|
H|----------------------------------|---------------------------------|
G|----------------------------------|---------------------------------|
D|--5---------------2---------------|---------------------------------|
A|----------------------------------|-5---------------4---------------|
E|------2---2---2-------2---2---2---|-----2---2---2-------2---2---2---|
. . . . . . . . . . . .

Gtr.1E|----------------------------------|---------------------------------|
H|----------------------------------|---------------------------------|
G|----------------------------------|---------------------------------|
D|--2-------------------------------|---------------------------------|
A|------------------4---------------|-1-----------5-------------------|
E|------2---2---2-------2---2---2---|-----2---2---3-------------------|
| . . . . . . | . . > |
Gtr.2E|----------------------------------|---------------------------------|
H|----------------------------------|---------------------------------|
G|----------------------------------|---------------------------------|
D|--5-------------------------------|---------------------------------|
A|------------------2---------------|-4-----------5-------------------|
E|------2---2---2-------2---2---2---|-----2---2---3-------------------|
. . . . . . . . >
(0:39 - 0:42)
RIFF 4:
Gtr.1E|---------------------------------|---------------------------------|
Gtr.2H|---------------------------------|---------------------------------|
Bass G|-9-------------------------------|---------------------------------|
D|-9-------------------------------|-----------------7---------------|
A|-7---7-7-7---7-7-7---7-7-7---7-7-|-7---7---9---10-----10---9---10--|
E|-.---.-.-.---.-.-.---.-.-.---.-.-|-.-------------------------------|
(0:42 - 1:09)
VERSE 1:
Tvoy dom stal dlya tebya tyur'moy
Gtr.1E|---------------------------------|---------------------------------|
Gtr.2H|---------------------------------|---------------------------------|
G|---------------------------------|-----------------9-------7-------|
D|---------------------------------|-----------------9-------7-------|
A|-7---7-7-7---7-7-7---7-7-7---7-7-|-7---7-7-7---7-7-7-------5-------|
E|-.---.-.-.---.-.-.---.-.-.---.-.-|-.---.-.-.---.-.->------->-------|
Dlya teh, kto v dome, ty chuzhoy
Gtr.1E|---------------------------------|---------------------------------|
Gtr.2H|---------------------------------|---------------------------------|
G|-5-------------------------------|-----------------5-------5-------|
D|-5-------------------------------|-----------------5-------5-------|
A|-3---3-3-3---3-3-3---3-3-3---3-3-|-3---3-3-3---3-3-3-------3-------|
E|->---.-.-.---.-.-.---.-.-.---.-.-|-.---.-.-.---.-.->------->-------|
Ty byl na - iven i zhdal pe - re -
Gtr.1E|---------------------------------|---------------------------------|
Gtr.2H|---------------------------------|---------------------------------|
G|-7-------------------------------|---------7-------5-------7-------|
D|-7-------------------------------|---------7-------5-------7-------|
A|-5---5-5-5---5-5-5---5-5-5---5-5-|-5---5-5-5-------3-------5-------|
E|->---.-.-.---.-.-.---.-.-.---.-.-|-.---.-.->------->------->-------|
- men.
Gtr.1E|---------------------------------|---------------------------------|
Gtr.2H|---------------------------------|---------------------------------|
G|---------------------------------|---------------------------------|
D|---------------------------------|-----------------7---------------|
A|-7---7-7-7---7-7-7---7-7-7---7-7-|-7---7---9---10-----10---9---10--|
E|-.---.-.-.---.-.-.---.-.-.---.-.-|-.-------------------------------|
Ty zhdal, chto drug tebya poymyot,
Gtr.1E|---------------------------------|---------------------------------|
Gtr.2H|---------------------------------|---------------------------------|
G|---------------------------------|-----------------9-------7-------|
D|---------------------------------|-----------------9-------7-------|
A|-7---7-7-7---7-7-7---7-7-7---7-7-|-7---7-7-7---7-7-7-------5-------|
E|---------------------------------|---------------------------------|
poy - myot i skazhet:"Zhmi vperyod!",
Gtr.1E|---------------------------------|---------------------------------|
Gtr.2H|---------------------------------|---------------------------------|
G|-5-------------------------------|-----------------5-------5-------|
D|-5-------------------------------|-----------------5-------5-------|
A|-3---3-3-3---3-3-3---3-3-3---3-3-|-3---3-3-3---3-3-3-------3-------|
E|---------------------------------|---------------------------------|
no drug bluzh - dal sredi sobst - vennyh
Gtr.1E|---------------------------------|---------------------------------|
Gtr.2H|---------------------------------|---------------------------------|
G|-7-------------------------------|---------7-------5-------7-------|
D|-7-------------------------------|---------7-------5-------7-------|
A|-5---5-5-5---5-5-5---5-5-5---5-5-|-5---5-5-5-------3-------5-------|
E|---------------------------------|---------------------------------|

sten.
Gtr.1E|---------------------------------|---------------------------------|
H|---------------------------------|---------------------------------|
G|---------------------------------|-----------------9--------------|
D|---------------------------------|-----------------9--------------|
A|-7---7-7-7---7-7-7---7-7-7---7-7-|-7---7-7-7---7-7-7--------------|
E|---------------------------------|---------------------------------|
| | |
Bass G|---------------------------------|---------------------------------|
D|---------------------------------|-12/14-14-14-14--14--14--12----------|
A|-7---7-7-7---7-7-7---7-7-7---7-7-|-------------------------14-----|
E|---------------------------------|---------------------------------|
(1:09 - 1:26)
CHORUS:
Gorel asfal't ot solntza i ot zvyozd
Gtr.1E|----------------------------------|---------------------------------|
H|--------------5---3h5p3------------|-------------5---3h5p3------------|
G|------2---5------------4----------|-2---4---5------------4----------|
D|--2-----------------------3---5---|-------------------------5---0---|
A|--.-----------------------.---.---|-------------------------.---.---|
E|----------------------------------|---------------------------------|
| | |
Gtr.2E|----------------------------------|---------------------------------|
H|----------------------------------|---------------------------------|
G|----------2---5---4h5p4------------|---------2---5---4h5p4------------|
D|------2----------------5--0---2---|-3---5----------------5----------|
A|--0---.-------------------.---.---|-.---.-------------------5---2---|
E|--.-------------------------------|-------------------------.---.---|
| | |
Bass G|----------------------------------|---------------------------------|
D|------------------5---------------|-----------------5---------------|
A|----------------------------------|---------------------------------|
E|--5---5---------------------------|-1---1---------------------------|

Gorel asfal't pod shum kolyos
Gtr.1E|----------------------------------|---------------------------------|
H|--------------5---3h5p3------------|-------------5---5-------6-------|
G|------2---5------------4----------|-2---4---5-----------4-------4---|
D|--2-----------------------3---5---|---------------------------------|
A|--.-----------------------.---.---|---------------------------------|
E|----------------------------------|---------------------------------|
| | |
Gtr.2E|----------------------------------|---------------------------------|
H|----------------------------------|---------------------------------|
G|----------2---5---4h5p4------------|---------2---5--/7-------7-------|
D|------2----------------5--0---2---|-3---5---------------6-------6---|
A|--0---.-------------------.---.---|-.---.---------------------------|
E|--.-------------------------------|---------------------------------|
| | |
Bass G|----------------------------------|---------------------------------|
D|------------------5---------------|-----------------6---------------|
A|----------------------------------|---------------------------------|
E|--5---5---------------------------|-1---1---------------------------|

Gorel asfal't ty chuvstvoval teplo
Gtr.1E|----------------------------------|---------------------------------|
H|--------------5---3h5p3------------|-------------5---3h5p3------------|
G|------2---5------------4----------|-2---4---5------------4----------|
D|--2-----------------------3---5---|-------------------------5---0---|
A|--.-----------------------.---.---|-------------------------.---.---|
E|----------------------------------|---------------------------------|
| | |
Gtr.2E|----------------------------------|---------------------------------|
H|----------------------------------|---------------------------------|
G|----------2---5---4h5p4------------|---------2---5---4h5p4------------|
D|------2----------------5--0---2---|-3---5----------------5----------|
A|--0---.-------------------.---.---|-.---.-------------------5---2---|
E|--.-------------------------------|-------------------------.---.---|
| | |
Bass G|--------------2-------------------|---------------------------------|
D|----------2---------------5-------|-------------3---2---------------|
A|--0---3---------------5-------5---|-----0---3-----------2-----------|
E|------------------3---------------|-1-----------------------0---3---|

Gorel asfal't snegam nazlo - oooooooo
Gtr.1E|----------------------------------|---------------------------------|
H|--------------5---3h5p3------------|-------------5---5-------6-------|
G|------2---5------------4----------|-2---4---5-----------4-------4---|
D|--2-----------------------3---5---|---------------------------------|
A|--.-----------------------.---.---|---------------------------------|
E|----------------------------------|---------------------------------|
| | |
Gtr.2E|----------------------------------|---------------------------------|
H|----------------------------------|---------------------------------|
G|----------2---5---4h5p4------------|---------2---5--/7-------7-------|
D|------2----------------5--0---2---|-3---5---------------6-------6---|
A|--0---.-------------------.---.---|-.---.---------------------------|
E|--.-------------------------------|---------------------------------|
| | |
Bass G|--------------2-------------------|---------------------------------|
D|----------2---------------5-------|-------------3---2---------------|
A|--0---3---------------5-------5---|-----0---3-----------2-----------|
E|------------------3---------------|-1-----------------------0---3---|

ooooooooooooooooooooo! 1.,2. --> <-----
Gtr. E|---------------------------------|-------------------------------|
Bass H|---------------------------------|-------------------------------|
G|---------------------------------|-(A5)--------------------------|
D|-7-------------------------------|-------------------------------|
A|-7-------------------------------|-------------------------------|
E|-5---5---5---5---5---5---5---5---|-5---5---5---5-5-5---5-5-5-5-5-|
(1:26 - 1:29) Repeat RIFF 4
(1:29 - 1:57) VERSE 2
(1:57 - 2:14) CHORUS
(2:14 - 2:27) Repeat RIFF 1 (*2 times)
(2:28 - 2:42)
RIFF 2A (play 2 times):
Gtr.1E||---------------------------------|---------------------------------|
Gtr.2H||---------------------------------|---------------------------------|
G||---------------------------------|-----------------7-------8-------|
D||-9-------10------9-------8-------|-9-------7-------7-------8-------|
A||-.---7---.---7---.---7---.---7---|-.---5---.---5---5-------6-------|
E||-----.-------.-------.-------.---|-----.-------.--->------->-------|
|| | |
Bass G||---------------------------------|---------------------------------|
D||---------------------------------|---------------------------------|
A||-7---7---------------------------|-5---5-----------5-------6-------|
E||---------------------------------|---------------------------------|

Gtr.1E|----------------------------------|---------------------------------||
Gtr.2H|----------------------------------|---------------------------------||
G|----------------------------------|-----------------5-------7-------||
D|--9-------10------9-------8-------|-9-------7-------5-------7-------||
A|--.---7---.---7---.---7---.---7---|-.---5---.---3---3-------5-------||
E|------.-------.-------.-------.---|-----.-------.--->------->-------||
| | ||
Bass G|----------------------------------|---------------------------------||
D|----------------------------------|---------------------------------||
A|--7---7---------------------------|-5---5-----------3-------5-------||
E|----------------------------------|---------------------------------||
(2:42 - 2:51)
RIFF 3A:
Gtr.1E|----------------------------------|---------------------------------|
+ H|----------------------------------|---------------------------------|
Gtr.2G|------------------2---------------|-----------------2---------------|
D|--5-------4---------------5---4---|-5-------4---------------5-------|
A|------2-------2-------2-----------|-----3-------3-------3-------3---|
E|------.-------.-------.-----------|-----.-------.-------.-------.---|

Gtr.1E|----------------------------------|---------------------------------|
H|----------------------------------|---------------------------------|
G|--2-------------------------------|---------------------------------|
D|------------------4---------------|-2---------------1---------------|
A|------2---2---2-------2---2---2---|-----2---2---2-------2---2---2---|
E|------.---.---.-------.---.---.---|-----.---.---.-------.---.---.---|
| | |
Gtr.2E|----------------------------------|---------------------------------|
H|----------------------------------|---------------------------------|
G|--5---------------2---------------|---------------------------------|
D|----------------------------------|-5---------------4---------------|
A|------2---2---2-------2---2---2---|-5---2---2---2-------2---2---2---|
E|------.---.---.-------.---.---.---|-----.---.---.-------.---.---.---|

Gtr.1E|----------------------------------|---------------------------------|
H|----------------------------------|---------------------------------|
G|--2-------------------------------|---------------------------------|
D|------------------4---------------|-1-----------5-------------------|
A|------2---2---2-------2---2---2---|-----2---2---3-------------------|
E|------.---.---.-------.---.---.---|-----.---.--->-------------------|
| | |
Gtr.2E|----------------------------------|---------------------------------|
H|----------------------------------|---------------------------------|
G|--5---------------2---------------|---------------------------------|
D|----------------------------------|-4-----------5-------------------|
A|------2---2---2-------2---2---2---|-----2---2---3-------------------|
E|------.---.---.-------.---.---.---|-----.---.--->-------------------|
SOLO:
(2:52 - 3:18)
PART A: (Mavrin's lead)
Lead E|---/17~~~~~~~~~~~~~~~~~~~~~~~~~~~~---------------|-(17)-------15----14----------------------------|
H|-sl----------------------------------------------|-------------------------17----16~~~~~~~~~-------|
G|-------------------------------------------------|-------------------------------------------------|
D|-------------------------------------------------|-------------------------------------------------|
A|-------------------------------------------------|-------------------------------------------------|
E|-------------------------------------------------|-------------------------------------------------|
| | |
Gtr.2E|-------------------------------------------------|-------------------------------------------------|
H|-------------------------------------------------|-------------------------------------------------|
G|-------------------------------------5-----------|-------------------------------------2-----------|
D|-------------------------------------5-----------|-------------------------------------2-----------|
A|-2-----2--2--2-----2--2--2-----2--2--3-----------|-2-----2--2--2-----2--2--2-----2--2--0-----------|
E|-.-----.--.--.-----.--.--.-----.--.-->-----------|-.-----.--.--.-----.--.--.-----.--.-->-----------|

Lead E|---/17-19-19-20-20p19p17----------------------------------|-------------------------------------------------|
H|---------------------20p19-19p17-----------------------|-------------------------------------------------|

G|--------------------------------20p19p17---17-16-------|------------16h17-17p16---16h17~~~~~~~~~~~~~~--------|
D|----------------------------------------19-------19-17-|----16h17h19-------------19---------------------------|
A|-------------------------------------------------|-18----------------------------------------------|
E|-------------------------------------------------|-------------------------------------------------|
| | |
Gtr.2E|-------------------------------------------------|-------------------------------------------------|
H|-------------------------------------------------|-------------------------------------------------|
G|-------------------------------------4-----------|-------------------------------------4-----------|
D|-------------------------------------4-----------|-------------------------------------4-----------|
A|-2-----2--2--2-----2--2--2-----2--2--2-----------|-2-----2--2--2-----2--2--2-----2--2--2-----------|
E|-.-----.--.--.-----.--.--.-----.--.-->-----------|-.-----.--.--.-----.--.--.-----.--.-->-----------|

Lead E|-------------------------------------------------|-------------------------------------------------|
H|-------------------------------------------------|-------------------------------------------------|
G|-------------------------------------------------|-------------------------------------------------|
D|----7-9-10-10p7----------------------------------|-------------------------------------------------|
A|--9------------9p7p6---7---9---6-----------------|-------------------------------------------------|
E|-------------------------------------8-----8p7p5-|-7-----------------------------------------------|
| | |
Gtr.2E|-------------------------------------------------|-------------------------------------------------|
H|-------------------------------------------------|-------------------------------------------------|
G|-------------------------------------5-----------|-------------------------------------2-----------|
D|-------------------------------------5-----------|-------------------------------------2-----------|
A|-2-----2--2--2-----2--2--2-----2--2--3-----------|-2-----2--2--2-----2--2--2-----2--2--0-----------|
E|-.-----.--.--.-----.--.--.-----.--.-->-----------|-.-----.--.--.-----.--.--.-----.--.-->-----------|

Lead E|-14----15----17p14---14----17----20----19--20--17--|-20------20------20------20----------------------|
H|------------------16-------------------------------|-----20------19------17------16~~~~~~~~~~~~~~----|
G|-------------------------------------------------|-------------------------------------------------|
D|-------------------------------------------------|-------------------------------------------------|
A|-------------------------------------------------|-------------------------------------------------|
E|-------------------------------------------------|-------------------------------------------------|
| | |
Gtr.2E|-------------------------------------------------|-------------------------------------------------|
H|-------------------------------------------------|-------------------------------------------------|
G|-------------------------------------4-----------|-------------------------------------4-----------|
D|-------------------------------------4-----------|-------------------------------------4-----------|
A|-2-----2--2--2-----2--2--2-----2--2--2-----------|-2-----2--2--2-----2--2--2-----2--2--2-----------|
E|-.-----.--.--.-----.--.--.-----.--.-->-----------|-.-----.--.--.-----.--.--.-----.--.-->-----------|

Lead E|-------------------------------------------------|-------------------------------------------------|
H|-16p13-----------------------------------------------|-------------------------------------------------|
G|------14---------14p11-------11p8--------------------|-------------------------------------8-h9-p8-h9-p|
D|---------1312-----------9p8------10-----10p7--10----|----------------------------9h10p9---------------|
A|--------------12----------------------9--------------|-------6--9--9b10--6----/9-----------------------|
E|-------------------------------------------------|-7--8--------------------------------------------|
| | |
Gtr.2E|-------------------------------------------------|-------------------------------------------------|
H|-------------------------------------------------|-------------------------------------------------|
G|-------------------------------------5-----------|-------------------------------------2-----------|
D|-------------------------------------5-----------|-------------------------------------2-----------|
A|-2-----2--2--2-----2--2--2-----2--2--3-----------|-2-----2--2--2-----2--2--2-----2--2--0-----------|
E|-.-----.--.--.-----.--.--.-----.--.-->-----------|-.-----.--.--.-----.--.--.-----.--.-->-----------|

Lead E|-------------------------------------------------|-0h11h12--12bend15~~~~~~~~~~~~~~~~~~~~~~~~~~~~~~-|
H|-------------------------10h12h13-13p12p10-----------|-------------------------------------------------|
G|-p8~~~~~~~~--------8h9h11-------------11p8h9h11--|-------------------------------------------------|
D|-------------10p9p8------------------------------|-------------------------------------------------|
A|-------------------------------------------------|-------------------------------------------------|
E|-------------------------------------------------|-------------------------------------------------|
| | |
Gtr.2E|-------------------------------------------------|-------------------------------------------------|
H|-------------------------------------------------|-------------------------------------------------|
G|-------------------------------------4-----------|-------------------------------------4-----------|
D|-------------------------------------4-----------|-------------------------------------4-----------|
A|-2-----2--2--2-----2--2--2-----2--2--2-----------|-2-----2--2--2-----2--2--2-----2--2--2-----------|
E|-.-----.--.--.-----.--.--.-----.--.-->-----------|-.-----.--.--.-----.--.--.-----.--.-->-----------|

T T
Lead E|-------------------------------------------14-17-|-17p14---14----17----20~~~~~~~~~~~~~~~---20p14h17-20p|
H|-------------------------------------13-16-------|-------16------------------------------------------|
G|-----------------------------14--16--------------|-------------------------------------------------|
D|---------------------13--16----------------------|-------------------------------------------------|
A|-------12----14--15------------------------------|-------------------------------------------------|
E|-14----------------------------------------------|-------------------------------------------------|
| | |
Gtr.2E|-------------------------------------------------|-------------------------------------------------|
H|-------------------------------------------------|-------------------------------------------------|
G|-------------------------------------5-----------|-------------------------------------2-----------|
D|-------------------------------------5-----------|-------------------------------------2-----------|
A|-2-----2--2--2-----2--2--2-----2--2--3-----------|-2-----2--2--2-----2--2--2-----2--2--0-----------|
E|-.-----.--.--.-----.--.--.-----.--.-->-----------|-.-----.--.--.-----.--.--.-----.--.-->-----------|

T T
Lead E|p17-20p17--------17p14p11h14p11h14-T------T---T--------------|--------------------------------- Holstinin's ---|
H|-----------------------16p13p10h13-16p13-16p10p7h10p7h10p7h10p7-|----------------------------------- lead -> -----|
G|-------------------------------------------------|-8h9p8h9p8h9-------------------------------2h3h4-|
D|-------------------------------------------------|-------------7h8p7h8p7h8-------------------------|
A|-------------------------------------------------|-------------------------6-----------------------|
E|-------------------------------------------------|-------------------------------------------------|
| | |
Gtr.2E|-------------------------------------------------|-------------------------------------------------|
H|-------------------------------------------------|-------------------------------------------------|
G|-------------------------------------4-----------|-------------------------------------4-----------|
D|-------------------------------------4-----------|-------------------------------------4-----------|
A|-2-----2--2--2-----2--2--2-----2--2--2-----------|-2-----2--2--2-----2--2--2-----2--2--2-----------|
E|-.-----.--.--.-----.--.--.-----.--.-->-----------|-.-----.--.--.-----.--.--.-----.--.-->-----------|
(3:19 - 3:57)
PART B: (Holstinin's lead)
Lead E|-------------------------------------------------|-------------------------------------------------|
H|-5-----0-----7-----0-----8-----0-----10-----7-bend8-release-7----\\\\-{ press tremolo bar }----|
G|-------------------------------------------------|-------------------------------------------------|
D|-------------------------------------------------|-------------------------------------------------|
A|-------------------------------------------------|-------------------------------------------------|
E|-------------------------------------------------|-------------------------------------------------|
| | |
Gtr.1E|-------------------------------------------------|-------------------------------------------------|
+ H|-------------------------------------------------|-------------------------------------------------|
bass G|-9-----------------------------------------------|-7-----------------------------------------------|
D|-9-----------------------------------------------|-7-----------------------------------------------|
A|-7-----7--7--7-----7--7--7-----7--7--7-----7--7--|-5-----5--5--5-----5--5--5-----5--5--5-----5--5--|
E|-------.--.--.-----.--.--.-----.--.--.-----.--.--|-------.--.--.-----.--.--.-----.--.--.-----.--.--|

Lead E|--- N.H. ----------------------------------------|-7--8--7-----------------------------------------|
H|----------//\\ articulate --------------|---------10--8--10--8--7-------------------------|
G|---------------------- w/tremolo bar ------------|-------------------------9--7--------------------|
D|-------------------------------------------------|------------------------------10--9--7-----------|
A|-------------------------------------------------|---------------------------------------10--9--10-|
E|-------------------------------------------------|-------------------------------------------------|
| | |
Gtr.1E|-------------------------------------------------|-------------------------------------------------|
+ H|-------------------------------------------------|-------------------------------------------------|
bass G|-5-----------------------------------------------|-7-----------------------------------------------|
D|-5-----------------------------------------------|-7-----------------------------------------------|
A|-3-----3--3--3-----3--3--3-----3--3--3-----3--3--|-5-----5--5--5-----5--5--5-----5--5--5-----5--5--|
E|-------.--.--.-----.--.--.-----.--.--.-----.--.--|-------.--.--.-----.--.--.-----.--.--.-----.--.--|

Lead E|-------------------------------------------------|-------------------------------------------------|
H|-------------------------------------------------|-------------------------------------------------|
G|-------------------------------------------------|-------------7-----5-----4-----------------------|
D|-------------------------------4--4--5--5--7--7--|-------7--7--------------------7-----5-----4-----|
A|-7-----------------------------.--.--.--.--.--.--|-5--5--.--.--------------------------------------|
E|-------------------------------------------------|-.--.--------------------------------------------|
| | |
Gtr.1E|-------------------------------------------------|-------------------------------------------------|
+ H|-------------------------------------------------|-------------------------------------------------|
bass G|-9-----------------------------------------------|-7-----------------------------------------------|
D|-9-----------------------------------------------|-7-----------------------------------------------|
A|-7-----7--7--7-----7--7--7-----7--7--7-----7--7--|-5-----5--5--5-----5--5--5-----5--5--5-----5--5--|
E|-------.--.--.-----.--.--.-----.--.--.-----.--.--|-------.--.--.-----.--.--.-----.--.--.-----.--.--|

Lead E|-------------------------------------------------|-------------------------------------------------|
H|-------------------------------------------------|-------------------------------------------------|
G|-------------5-----4-----------------------------|-------------------------------------------------|
D|-5-----------------------7-----5-----4-----------|--- T -- T ---- T ---- T ---- T ---- T ----------|
A|-------7-----------------------------------7-----|-6--9-p6-10p6p2-10p6p2-12p6p2-12p6p2-14~~~~------|
E|-------------------------------------------------|-------------------------------------------------|
| | |
Gtr.1E|-------------------------------------------------|-------------------------------------------------|
+ H|-------------------------------------------------|-------------------------------------------------|
bass G|-5-----------------------------------------------|-4-----------------------------------------------|
D|-5-----------------------------------------------|-4-----------------------------------------------|
A|-3-----3--3--3-----3--3--3-----3--3--3-----3--3--|-2-----2--2--2-----2--2--2-----2--2--2-----------|
E|-------.--.--.-----.--.--.-----.--.--.-----.--.--|-------.--.--.-----.--.--.-----.--.--.-----.--.--|

Lead E|-------------------------------------------------|-------------------------------------------------|
H|-8--7--------8--7--------8--7--------8--7--------|-10--7-------10--7-------10--7-------10--7-------|
G|-------9--7--------9--7--------9--7--------9--7--|--------9--7--------9--7--------9--7--------9--7-|
D|-------------------------------------------------|-------------------------------------------------|
A|-------------------------------------------------|-------------------------------------------------|
E|-------------------------------------------------|-------------------------------------------------|
| | |
Gtr.1E|-------------------------------------------------|-------------------------------------------------|
+ H|-------------------------------------------------|-------------------------------------------------|
bass G|-9-----------------------------------------------|-7-----------------------------------------------|
D|-9-----------------------------------------------|-7-----------------------------------------------|
A|-7-----7--7--7-----7--7--7-----7--7--7-----7--7--|-5-----5--5--5-----5--5--5-----5--5--5-----5--5--|
E|-------.--.--.-----.--.--.-----.--.--.-----.--.--|-------.--.--.-----.--.--.-----.--.--.-----.--.--|

Lead E|-7-----------7-----------7-----------------------|-------------------------------------------------|
H|-------7--8-----8--7-------10--8-----------------|----------------------10-12h13p10h13----13-------|
G|----9-----------------9----------11--9-----------|--------------9-11-12----------------12----11/12-|
D|---------------------------------------12--10--9-|-----9-10-12-------------------------------------|
A|-------------------------------------------------|-12----------------------------------------------|
E|-------------------------------------------------|-------------------------------------------------|
| | |
Gtr.1E|-------------------------------------------------|-------------------------------------------------|
+ H|-------------------------------------------------|-------------------------------------------------|
bass G|-5-----------------------------------------------|-7-----------------------------------------------|
D|-5-----------------------------------------------|-7-----------------------------------------------|
A|-3-----3--3--3-----3--3--3-----3--3--3-----3--3--|-5-----5--5--5-----5--5--5-----5--5--5-----5--5--|
E|-------.--.--.-----.--.--.-----.--.--.-----.--.--|-------.--.--.-----.--.--.-----.--.--.-----.--.--|

Lead E|-------15p12----15p12----15p12-15-14-------12----|-------17p14----17p14----17p14-17-15-------14----|
H|-12----------12-------12-------------------------|-15----------15-------15-------------------------|
G|-------------------------------------------------|-------------------------------------------------|
D|-------------------------------------------------|-------------------------------------------------|
A|-------------------------------------------------|-------------------------------------------------|
E|-------------------------------------------------|-------------------------------------------------|
| | |
Gtr.1E|-------------------------------------------------|-------------------------------------------------|
+ H|-------------------------------------------------|-------------------------------------------------|
bass G|-9-----------------------------------------------|-7-----------------------------------------------|
D|-9-----------------------------------------------|-7-----------------------------------------------|
A|-7-----7--7--7-----7--7--7-----7--7--7-----7--7--|-5-----5--5--5-----5--5--5-----5--5--5-----5--5--|
E|-------.--.--.-----.--.--.-----.--.--.-----.--.--|-------.--.--.-----.--.--.-----.--.--.-----.--.--|

Lead E|-------19p15----20p15----19p15-19-17-------15----|-14-14-14-14-15-15-15-15-17-17-17-17-20-20-20-20-|
H|-17----------17-------17-------------------------|----- tremolo picking ---------------------------|
G|-------------------------------------------------|-------------------------------------------------|
D|-------------------------------------------------|-------------------------------------------------|
A|-------------------------------------------------|-------------------------------------------------|
E|-------------------------------------------------|-------------------------------------------------|
| | |
Gtr.1E|-------------------------------------------------|-------------------------------------------------|
+ H|-------------------------------------------------|-------------------------------------------------|
bass G|-5-----------------------------------------------|-4-----------------------------------------------|
D|-5-----------------------------------------------|-4-----------------------------------------------|
A|-3-----3--3--3-----3--3--3-----3--3--3-----3--3--|-2-----------------------------------------------|
E|-------.--.--.-----.--.--.-----.--.--.-----.--.--|-------------------------------------------------|

Gtr.2E|-19----20----17----20----------20----------20----|-------------------------------------------------|
H|-------------------------20----------19----------|-16----------------------------------------------|
G|-------------------------------------------------|-------------------------------------------------|
D|-------------------------------------------------|-------------------------------------------------|
A|-------------------------------------------------|-------------------------------------------------|
E|-------------------------------------------------|-------------------------------------------------|
| | |
Gtr.1E|-------------------------------------------------|-19----20----17----20----------20----------20----|
H|-------------------------------------------------|-------------------------20----------19----------|
G|-------------------------------------------------|-------------------------------------------------|
D|-------------------------------------------------|-------------------------------------------------|
A|-------------------------------------------------|-------------------------------------------------|
E|-------------------------------------------------|-------------------------------------------------|

Gtr.2E|-------------------------------------------------|-------------------------------------------------|
H|-12----13----10----13----------13----------13----|-------------------------------------------------|
G|-------------------------12----------11----------|-8-----------------------------------------------|
D|-------------------------------------------------|-------------------------------------------------|
A|-------------------------------------------------|-------------------------------------------------|
E|-------------------------------------------------|-------------------------------------------------|
| | |
Gtr.1E|-------------------------------------------------|-------------------------------------------------|
H|-16----------------------------------------------|-12----13----10----13----------13----------13----|
G|-------------------------------------------------|-------------------------12----------11----------|
D|-------------------------------------------------|-------------------------------------------------|
A|-------------------------------------------------|-------------------------------------------------|
E|-------------------------------------------------|-------------------------------------------------|

Gtr.2E|--------- 3/4 measure ---------------|--------- 3/4 measure ---------------|
H|-10----------------------------------|-------------------------------------|
G|-----11---8---11---8------8----------|-------------------------------------|
D|----------------------10-----10--7---|-10--7-------7-----------------------|
A|-------------------------------------|---------9-------9---6---9---6-------|
E|-------------------------------------|---------------------------------8---|
| | |
Gtr.1E|--------- 3/4 measure ---------------|--------- 3/4 measure ---------------|
H|-------------------------------------|-10--7-------7-----------------------|
G|-8-----------------------------------|---------8-------8-------------------|
D|-------------------------------------|--------------------10---8-----------|
A|-------------------------------------|----------------------------10---7---|
E|-------------------------------------|-------------------------------------|
| | |
Bass G|----R--------------------------------|----R--------------------------------|
D|----E--------------------------------|----E--------------------------------|
A|-6--S--------------------------------|-3--S--------------------------------|
E|----T--------------------------------|----T--------------------------------|

Gtr.1E|--A5---------------------G5----------------------|-F#5---------------------G5----------------------|
Gtr.2H|-------------------------------------------------|-------------------------------------------------|
+ G|-------------------------------------------------|-------------------------------------------------|
bass D|-------------------------------------------------|-------------------------------------------------|
A|-------------------------------------------------|-------------------------------------------------|
E|--5----------------------3-----------------------|-2----------------------/7-----------------------|
(3:57 - 4:00) Repeat RIFF 4
(4:00 - 4:27) VERSE 3
(4:27 - 4:41) CHORUS, without the last line
(4:41 - 4:54) CHORUS one more time; instead of the last line here goes:
(4:54 - 5:09)
OUTRO:
3. ----------------------------------------------------->
Gtr.1E|--ritenuto------------------------|---------------------------------|
H|--5-------6-------5-------6-------|-5-------6-----------------------|
G|------4-------4-------4-------4---|-----4-------4---2---------------|
D|----------------------------------|-----------------2---------------|
A|----------------------------------|-----------------0---------------|
E|----------------------------------|---------------------------------|
| | |
Gtr.2E|--ritenuto------------------------|---------------------------------|
H|----------------------------------|---------------------------------|
G|--7-------7-------7-------7-------|-7-------7-----------------------|
D|------6-------6-------6-------6---|-----6-------6---7---------------|
A|----------------------------------|-----------------7---------------|
E|----------------------------------|---------------------------------|