( )

A                                                   

ec
(pca Cac eo raven_evil@aria-band.zzn.com)
Cpo ap:
1 - E
2 - H
3 - G (ocoa e o, o 6- cpya y a o e oe, o 4-, oo a oay e)
4 - D
5 - A
6 - D
Intro
E-----------------------------------|-------------------------------------|
H-----------------------------------|-------------------------------------|
G-----------------------------------|-------------------------------------|
D--2--------------------------------|--1----------------------------------|
A--2--------------------------------|--1--------------------0*------------| - eco 0* oo aoe
D--2--2-2-2-2-2-2-2-2--5--4--2------|--1--1-1-1-1-1-1-1-1-----------------| a 6- cpye (2- a)
E-----------------------------------|-------------------------------------|
H-----------------------------------|-------------------------------------|
G-----------------------------------|-------------------------------------|
D--2--------------------------------|--1----------------------------------|

A--2--------------------------------|--1-------------------2-3-2-0--------|
D--2--2-2-2-2-2-2-2--4--5--4--2-----|--1--1-1-1-1-1-1-1-1----------5-4----|
E-------------------------------------------------------------------------|
H-------------------------------------------------------------------------|
G-------------------------------------------------------------------------|
D--9--------9----7--------7----5--------5-----7----7----7----7------------|
A--9--------9----7--------7----5--------5-----7----7----7----7------------|
D--9--xxxx--9----7--xxxx--7----5--xxxx--5---7-7--7-7--7-7--7-7------------|
E--------------------------------------------------||
H--------------------------------------------------||
G--------------------------------------------------||
D--9--------9----7--------7----5--------5---7------||
A--9--------9----7--------7----5--------5---7------||
D--9--xxxx--9----7--xxxx--7----5--xxxx--5---7------||
E---------------------------------------------------------------------|
H---------------------------------------------------------------------|
G---------------------------2--3--2--0--------------------------------|
D--2--------2--------2------------------3--2--------------------------|
A--2--------2--------2------------------------------------------------|
D--2--xxxx--2--xxxx--2------------------------------------------------|
Verse :
a e co c ya e c eya cpoca e
E-------------------------------------------------------------------|
H-------------------------------------------------------------------|
G-------------------------------------------------------------------|
D--0--xxx--0-0-2-3--------3--3--3---9--xxx--9-9-9-7--xxx--7-7-7-----|
A--0--xxx--0-0-2-3--------3--3--3---9--xxx--9-9-9-7--xxx--7-7-7-----|
D--0-------0-0-2-3---xxx--3--3--3---9--xxx--9-9-9-7--xxx--7-7-7-----|

a e xo pa coa o co opa ce
E-------------------------------------------------------------------|
H-------------------------------------------------------------------|
G-------------------------------------------------------------------|
D--0-------0-0-2-3--------3--3--3---9--xxx--9-9-9----2----2---------|
A--0-------0-0-2-3--------3--3--3---9--xxx--9-9-9----2----2---------|
D--0-------0-0-2-3--------3--3--3---9--xxx--9-9-9----2----2---------|

ec yxoo ee ecoea cpac op
E---------------------------------------------------------------------|
H---------------------------------------------------------------------|
G--------------------------------------------5--xxx--5-5-5------------|
D--3--xxx--3-3-4-5--xxx--5-5-5-8--xxx--8-8-8-5--xxx--5-5-5------------|
A--3--xxx--3-3-4-5--xxx--5-5-5-8--xxx--8-8-8-3--xxx--3-3-3------------|
D--3--xxx--3-3-4-5--xxx--5-5-5-8--xxx--8-8-8--------------------------|

oyx y a e C ae po oe cy
E---------------------------------------------------------------------|
H---------------------------------------------------------------------|
G----------------------------------------------5---3------------------|
D--3--xxx--3-3-4-5--xxx--5-5-5-8--xxx--8-8-8---5---3------------------|
A--3--xxx--3-3-4-5--xxx--5-5-5-8--xxx--8-8-8---3---1------------------|
D--3--xxx--3-3-4-5--xxx--5-5-5-5--xxx--8-8-8--------------------------|
Chorus :
ec ec ce e e - e
ec ec ye oe - e -
E----------------------------|---------------------------------------|
H----------------------------|---------------------------------------|
G----------------------------|--7----------5----------3--------------|
D--8--5----------------------|--7----------5------8---3--------------|
A--8--5---4--3--4--3--1-1----|--5----------3------8---5--------------|
D--8--5----------------------|--------------------8------------------|
- eeeeeeeeeeeeeeeeeeeeeeeeeeeeeeeeeeeeeeeeee
E---------------------------------------------------------------------|
H---------------------------------------------------------------------|
G--------------------------------------------------2--3--2--0---------|
D--0-------0-0-0-----------0-0-0---0-------0-0-0---------------3--2---|
A--0-------0-0-0---0-------0-0-0---0-------0-0-0----------------------|
D--0--xxx--0-0-0---0--xxx--0-0-0---0--xxx--0-0-0----------------------|
Verse II
Chorus
Solo
E----------------------------|---------------------------------|
gtr1. H---10------------10-8---10--|--10------------10-8--6-10---8---|
gtr2. G---10--10-----10-10-7---9---|--10--10-----10-10-7--7--9---7---|
D-------10--10-10------------|------10--10-10------------------|
A-----------10---------------|----------10---------------------|
D----------------------------|---------------------------------|

E---8------------8-----8-----|---------------------------------|
H---9--9---------9-11--8-----|---------------------------------|
G------10-----10---12--------|---------------------------------|
D----------10-10-------------|---------------------------------|
A----------10----------------|---------------------------------|
D----------------------------|---------------------------------|
Verse III.
Chorus