( )

A                                                   

y - ac

Ver.1
~~~~~
oopa: Ivan Tarasov (tarasov@au.ru) [12.06.2000]

Am C D F
ee o

a ecoeo.

cao aae apa:
|-----------------|-----------------|
|-----------------|---------0-1-0---|
|-2---2-0-2---2-0-|-2---2-0-------0-|

|-----------------|-----------------| x4
|-----------------|-----------------|
|-----------------|-----------------|

acc, ocoo:
|-----------------|-----------------|
|-----------------|---------3-----3-|
|-0-----0-3-----3-|-5-----5---------|
|-----------------|-----------------|

apaa (eoo):
h - closed hi-hat
c - crash cym.
b - bass drum (oa ;) )
s - snare
p - splash cym.

ye:
oop
o pea aya aya
|-----|-c---h-h-h-h-h-h-||-h-h-h-h-h-h-h-h-||-c- --- -----------|
|-s---|-----s-------s---||:----s-------s--:||--- -s- -s-s---s---|
|-----|-b-----b-b-------||-b-----b-b-------||--- --- -----b---b-|

pe:
aya
|-c---p-p-p-p-p-p-||-p-p-p-p-p-p-p-p-||-c-
|-----s-------s---||:----s-------s--:||---
|-b-----b-b-------||-b-----b-b-------||---

pop oce opoo pea paec pepo a e a pe

Ooae:
---|-c----------
-s-|------------
---|------------

Ver.2
~~~~~

oopa: Denis Roshchin (denis@komkon.org,
http://www.komkon.org/~denis/guitar/) [17.6.2000 ~0:35]

 

Verse:
Am Dm E
ee o
Am Dm E
a ee pacoy
Am F
a oe aa
E Am
a ooy ocy

Am Dm E
A e ye ac
Am Dm E
ee ae
Am F
A e ye ac
E Am
oca cae ee

o yaee oa caaa?

Chorus:
Am Dm Am
a y e e aa - eao
(Am) Dm Am
a y e e aa - ac
(Am) Dm Am
a y e e ce aoopo
E Am
ao a ac

Verse:
ee o
a ee pacoy
a oe aa
a ooy ocy

p o e ca
pyo a ooa
A oe oya
O e e coa

Chorus (3x)