АККОРДЫ ДЛЯ ГИТАРЫ

главная аккорды и песни песни

Песни под гитару

Самоучитель игры на гитаре (для новичков)

Аккорды к песням

A  Б  В  Г  Д  Е  Ж  З  И  К  Л  М  Н  О  П  Р  С  Т  У  Ф  Х  Ч  Ш  Э  Ю  Я 

Гындул Мыцей

Gandul Matei
"Liberty"
Album: "Cu gandul la ea..."
Inainte de toate fac niste observatsii - incercati in timpul cantarii
la chitara sa folositi toate degetele shi atunci o sa fie mult mai clar
cum sa cyntatsi. Shi inca putsin folositi imaginatia ca sa va inchipuiti
cum ar fi trebuit sa tsinetsi degetele. 10x.
INTRO:
Are un sunet moale specific (posibil cu flanger). De fapt pe album [intro] se
cynta la 2 chitari - una cynta aproximativ ceea ce e scris mai jos pe struna
|e|(prima, cea mai subtire), iar restul, acordurile pe toate strunele la a
II-a chitara.
Em(VII) Am(V) D C
e|-7-----8-7-------5-----7-5---7-5-2-----3-2---3-2-0-----3-----0-|

B|---8-------8---8---5-------5-------3-------3-------1-----1-----|
G|-----9-------9-------5---------------2---------------0-----0---|
D|---------------------------------0~~~~~~~~~~~~~~~--------------|
A|-----------------0~~~~~~~~~~~~~------------------3~~~~~--------|
E|-0~~~~~~~~~~~~~~-----------------------------------------------|
Em(VII) Am(V) D C
e|-7-----8-7-------5-----7-5---7-5-2-----3-2---3-2-0-----3-----0-|
B|---8-------8---8---5-------5-------3-------3---------1-----1---|
G|-----9-------9-------5---------------2-------------0-----0-----|
D|---------------------------------0~~~~~~~~~~~~~~~--------------|
A|-----------------0~~~~~~~~~~~~~------------------3~~~~~--------|
E|-0~~~~~~~~~~~~~~-----------------------------------------------|
Am Em
e|-0-----2-----0---0~~~~~~----------|
B|-----1---1---1---0~~~~~~----------|
G|---2-------2---2-0~~~~~~------0-2-| shi aici incepe unirea brusca(!)
D|-----------------2~~~~~~2-2-4-----| [INTRO/VERSE]
A|-0---------------2~~~~~~----------| adica nu-i nici una, nici alta.
E|-----------------0~~~~~~----------|
INTRO/VERSET:
Se cynta acordurile in acelasi timp cu mini-solo (in popor se numeshte 'perebor').
Em C G Am x2
D|-------------------------------------------------4-| /
VERSE:
Aici se cynta notele de la [INTRO], adica cele 3 blocuri de tabs-uri de mai sus.
"It's night and it's cold
See the crowded bars ..."
CHORUS, adica REFREN:
Aici se cynta notele de la [INTRO/VERSE].
"Do you feel, do you fe-e-el
Do you feel, this liberty?..."
Dupa al II-lea refren se incepe oleaca de "carne, tejeleak" - un fel de BRIDGE:
Em G(III) F# Em G (cynd striga)
Daca atsi ascultat cyntecul atunci stiti ce sa faceti mai departe.
================
LEGENDA:
Acorduri folosite in cyntec
iata:
strunele:EADGBe
Em 022000
Em(VII) 779987
F# 244xxx - 'x' indica ca strunele date nici nu tre sa sa auda
G 320003 - p-u simplitate luati acest acord cu degetul mic pe struna
cea mai groasa, shi restul o sa va dati seama.
G(III) 355xxx
Am 002210
Am(V) 577555
C 332010
D 000232
*******************************************
Tabs de Vinni : tabs@mail.md
Alte tabs-uri : www.negative.ournet.md