( )

A                                                   

7 ao a opo
A y pa ac o oo
Apaeo-oc
Ae
Ae (2)
Aapx
Aapx (a ye)
Aaca
ep e
ye o e
o ape
o ape (2)
Cey ooo
ao oe
ecx opax
aae o coo
ce Coce e o
ce e o ay
ce e o ay (2)
ce e o ay (5)
ce e o ay (coo)
ce e o ay (in English)
ce a y e
ce a y e 2
ce poe
c e y
ep ope
ea eca
o Cpe
oa
ocyapco
opo eca
oa-poa
p oo a oo (2)
a ay
aeo e opoa (epe ece oo)
eepp
eeca
eeca (2)
ec oop Caa ""
ec p
p p
y oae
Ec!
Eaee
Eaee o Eopa
E eoo
Flying Home
Ƹa pecca

aec!!!
aoa y ac aa
aoop
ooap (2)
o
opoo eo (2)
pacy, ׸p oee
pacy, ׸p oee (2)
Coa eo
Coa eo (2)
o pooaec o!
o pooaec o! (2)
ya ye Pa
pa cep
op eeo (ace )
apa
a e o pooo eppoa
a coa
aoe e eo
opoa
oo-o E
oea
pac cex
pac o
pac ap

-po
aaya aay
eo c
o coxe ep
o coxe ep (2)
ec
eo poo
ooo
˸ o oa aopa
ae p opaac oo
aa
aa,aa
epe
oe
p
p (2)
p (3)

yoo oe
eoa
a ax aax
a ax aax (2)
aceoe
acpa a oe o
acpa a oe o (2)
a ee oo pax
a (-oa)
e Ceo
eoca eoc
eoe ea
epo
eoa ecea
epep cy
epep cy (2)
eeo ep
eeo ep (2)
a o, po o
a o, po o2
o e xoe ypa
O, o ceepa cpaa!
Ox, a aco eo pa
Oeco (2)
O ye coe
O
O peoa
Op e ae oep oa
Oe

apaoc
ao ope
cxoeec aee
ecea o coc, e ae
ec O aco apoo opooe

ec O ee
ec pacoapea
epeea oo
ocee Aece pyex
oce ecea o
oe a ay e
oe e
oea
oxy, axy
oxy, axy (2)
oea
oea (2)
oeo
oeo (2)
oaa oo
oaa oo (3)
oo
o Peo
oc
oep
o ce a X
pa oc
pa oc (2)
peocxoa ec
po ypaa
po ypaa (3)
po epa, ae eco
po aoy eoy
po yy
po epo
pooa pooa
po!
po! (2)
pa
poo Aea!
y oaoo ae
Papaee
Papaee (2)
Poa
Poa (2)
Pyccoe oe cepeo
Pyccoe oe cepeo (2)
Caooo
Caooo (2)
Coaa
Coa
Coaa e poac
Coac co
Coe o
Coeopo
Coeopo (2)
Cpe apaeoo oo pa
Co oo e axe (!)
Co oo e axe (!) (2)
Co oo e axe (!) (3)
Cooa (2)
Ccea
Copo acae Coce
Co py oe ooe
Ce a a cey
Cee e acy
Coo - oap
Capy cex epe
Capoc - e Paoc
Cx


a aaac Ca
oc
oap opae
oaap
ooa
paa
ya
o e ecoe o (2)
ac opa eppop
epe oo
ococa ec O ye
ococa ec O ye (2)

Xopoo!!
Xopoo!! (2)
Xopo Aoyc
Xy
Xa!

aca
ep oee
a oa
, aa, ea!
, pa ep
po
po (2)
Ca ex
coa o yo ee y
ecoee
a a ea
ope
e ep Aapx
eay pac e

pa oc
x4
E |-2-2-----9--9-----|-7-7-----0-0-----|
B |-2---2---9----9---|-7---7---0---0---|
G |.2-----2-9------9-|-8-----8-1-----1.| - cyee
D |.4-------11-------|-9-------2------.|
A |-4-------11-------|-9-------2-------|
E |-2-------9--------|-7-------0-------|
Bass
E3|-----------------|-----------------|
A3|-----------------|-----------------|
D4|---------4-4-4-4-|-2-2-2-2---------|
G4|-2-2-2-2---------|---------0-0-0-0-|
x4
|-2-2-----9--9-----|-7-7-----0-0-----| pa oc, ope
|-2---2---9----9---|-7---7---0---0---| opox aea aco
|.2-----2-9------9-|-8-----8-1-----1.| - ye 1 a aea
ao
|.4-------11-------|-9-------2------.| pep ycoe a
|-4-------11-------|-9-------2-------|
|-2-------9--------|-7-------0-------|
pe:
x3
|-5---5---10---10--|-4---4---9---9---|
|-5---5---10---10--|-4---4---9---9---| oe , ye pe
|.6---6---11---11--|-5---5---10--10-.| pye a, ape pe
|.7---7---12---12--|-6---6---11--11-.| C a cpaxo, c ao
|-7---7---12---12--|-6---6---11--11--| eco -\
|-5---5---10---10--|-4---6---9---9---| |
x2 |
|-2-2-----9--9-----|-7-7-----0-0-----| |
|-2---2---9----9---|-7---7---0---0---| o
|.2-----2-9------9-|-8-----8-1-----1.| |
|.4-------11-------|-9-------2------.| |
|-4-------11-------|-9-------2-------| o
|-2-------9--------|-7-------0-------|
x4
|-2-2-----9--9-----|-7-7-----0-0-----| pa oc ooe
pe
|-2---2---9----9---|-7---7---0---0---| oc aoo ppo
|.2-----2-9------9-|-8-----8-1-----1.| - ye 2 ce ocaoc a coe
ece
|.4-------11-------|-9-------2------.| e o eo e ae
|-4-------11-------|-9-------2-------|
|-2-------9--------|-7-------0-------|
pe:
Bass
|----------------||----------------|
|----------------||----------------|
|----------------||----------------|
|-5---5---10--10-||-4---4---9------|
x3
|-5---5---10---10--|-4---4---9---9---|
|-5---5---10---10--|-4---4---9---9---| oe , ye pe
|.6---6---11---11--|-5---5---10--10-.| pye a, ape pe
|.7---7---12---12--|-6---6---11--11-.| C a cpaxo, c ao
|-7---7---12---12--|-6---6---11--11--| eco -\
|-5---5---10---10--|-4---6---9---9---| |
x2 |
|-2-2-----9--9-----|-7-7-----0-0-----| |
|-2---2---9----9---|-7---7---0---0---| o
|.2-----2-9------9-|-8-----8-1-----1.| |
|.4-------11-------|-9-------2------.| |
|-4-------11-------|-9-------2-------| o
|-2-------9--------|-7-------0-------|
Solo:(e yepe o c pao)
E
|-12--11--9--5--|-9-5-4-5-0----|----5-4-4--2--4--2--0--2--|-0-4-0-2-4----|
B
|---------------|--------------|--------------------------|--------------|
G
|---------------|--------------|--------------------------|--------------|
D
|---------------|--------------|--------------------------|--------------|
A
|---------------|--------------|--------------------------|--------------|
E
|---------------|--------------|--------------------------|--------------|
|-12-11-9--5--9----7----2--|-0-2-0-9-----|-2--0-2-9----|-0-2-9-0-9----|
|--------------------------|-------------|-------------|--------------|
|--------------------------|-------------|-------------|--------------|
|--------------------------|-------------|-------------|--------------|
|--------------------------|-------------|-------------|--------------|
|--------------------------|-------------|-------------|--------------|
pa oc, ope
opox aea aco
pa ape o
Coppy pex ea
oe , ye pe
pye a, ape pe
C ao pao, c ao
eco-o-o
F@N_of_Letov