( )

A                                                   

7 ao a opo
A y pa ac o oo
Apaeo-oc
Ae
Ae (2)
Aapx
Aapx (a ye)
Aaca
ep e
ye o e
o ape
o ape (2)
Cey ooo
ao oe
ecx opax
aae o coo
ce Coce e o
ce e o ay
ce e o ay (2)
ce e o ay (5)
ce e o ay (coo)
ce e o ay (in English)
ce a y e
ce a y e 2
ce poe
c e y
ep ope
ea eca
o Cpe
oa
ocyapco
opo eca
oa-poa
p oo a oo (2)
a ay
aeo e opoa (epe ece oo)
eepp
eeca
eeca (2)
ec oop Caa ""
ec p
p p
y oae
Ec!
Eaee
Eaee o Eopa
E eoo
Flying Home
Ƹa pecca

aec!!!
aoa y ac aa
aoop
ooap (2)
o
opoo eo (2)
pacy, ׸p oee
pacy, ׸p oee (2)
Coa eo
Coa eo (2)
o pooaec o!
o pooaec o! (2)
ya ye Pa
pa cep
op eeo (ace )
apa
a e o pooo eppoa
a coa
aoe e eo
opoa
oo-o E
oea
pac cex
pac o
pac ap

-po
aaya aay
eo c
o coxe ep
o coxe ep (2)
ec
eo poo
ooo
˸ o oa aopa
ae p opaac oo
aa
aa,aa
epe
oe
p
p (2)
p (3)

yoo oe
eoa
a ax aax
a ax aax (2)
aceoe
acpa a oe o
acpa a oe o (2)
a ee oo pax
a (-oa)
e Ceo
eoca eoc
eoe ea
epo
eoa ecea
epep cy
epep cy (2)
eeo ep
eeo ep (2)
a o, po o
a o, po o2
o e xoe ypa
O, o ceepa cpaa!
Ox, a aco eo pa
Oeco (2)
O ye coe
O

O peoa
Op e ae oep oa
Oe

apaoc
ao ope
cxoeec aee
ecea o coc, e ae
ec O aco apoo opooe
ec O ee
ec pacoapea
epeea oo
ocee Aece pyex
oce ecea o
oe a ay e
oe e
oea
oxy, axy
oxy, axy (2)
oea
oea (2)
oeo
oeo (2)
oaa oo
oaa oo (3)
oo
o Peo
oc
oep
o ce a X
pa oc
pa oc (2)
peocxoa ec
po ypaa
po ypaa (3)
po epa, ae eco
po aoy eoy
po yy
po epo
pooa pooa
po!
po! (2)
pa
poo Aea!
y oaoo ae
Papaee
Papaee (2)
Poa
Poa (2)
Pyccoe oe cepeo
Pyccoe oe cepeo (2)
Caooo
Caooo (2)
Coaa
Coa
Coaa e poac
Coac co
Coe o
Coeopo
Coeopo (2)
Cpe apaeoo oo pa
Co oo e axe (!)
Co oo e axe (!) (2)
Co oo e axe (!) (3)
Cooa (2)
Ccea
Copo acae Coce
Co py oe ooe
Ce a a cey
Cee e acy
Coo - oap
Capy cex epe
Capoc - e Paoc
Cx


a aaac Ca
oc
oap opae
oaap
ooa
paa
ya
o e ecoe o (2)
ac opa eppop
epe oo
ococa ec O ye
ococa ec O ye (2)

Xopoo!!
Xopoo!! (2)
Xopo Aoyc
Xy
Xa!

aca
ep oee
a oa
, aa, ea!
, pa ep
po
po (2)
Ca ex
coa o yo ee y
ecoee
a a ea
ope
e ep Aapx
eay pac e

c\'.: D A G A

D A GA D A GA
pao oop, pao ypa
pao ya, pao pa

D A G A
pa cep epe cae ce
pa cep epe cae ce
H F# G A
pa cep epe cae ce

ca ec ao, y ca ec o
A y e ec co, y e ec o

pa cep epe cae ce
pa cep epe cae ce
pa cep epe cae ce

Solo:

Ca , ca pa
Ca , a pa cep

pa cep epe cae ce
pa cep epe cae ce
pa cep epe cae ce

Solo :

No.1
1|--------------------12-10-9-10-9-7-5-7-5--------------------------------|
2|-7-8-10-10/12-10-12------------------------8-9-8-9-11---------------------|
3|--------------------------------------------------------------------------|
No.2
1|-8-8-8-6---------------------------------------8-6------------------------|
2|---------9-8-9-8-9-8-6---4-6-8--6-8-9-8-9-8-9-----------------------------|
3|--------------------------------------------------------------------------|
No.3
1|-13-11-10-11-10-8-6-8-6---------------------------------------------------|
2|------------------------8-9-8-6-------------------------------------------|
3|--------------------------------------------------------------------------|
(No.3 pa p paa...)
No.4
1|-----------4-6-4-6-8-8-8-8-6----------------------------------------------|
2|-6-8---6-8----------------------------------------------------------------|
3|--------------------------------------------------------------------------|