( )

A                                                   

ooe
"ooe"
---------------------------
tabbed by Veselov Stanislav
Tempo: 105 bpm;
Measure: 4/4;
Ooae:
G1 - Ayceca apa c aoacpo a 5 ay.
G2 - epoapa (clean).
h - hammer-on
p - pull-off
~ - vibrato
b - bend (FB - full bend)
(HB - half bend)
r - release
intro:
C C
G1 E|--------------------------|--0--------0-----------0--|
H|--1--------1--3--------3--|-----1--------1-----3-----|
G|--------0-----------0-----|--------0--------0--------|
D|-----2-----------0--------|--------------------------|
A|--3-----------2-----------|--3-----------------------|
E|--------------------------|--------------------------|
| |
G2 H|--------------------------|--------------------------|
G|--------------------------|--------------------------|
F A7
G1 E|--1--------1--0--------0--|--------------------------|
H|--------1--------2--------|--3--------3--------3-----|
G|-----2--------------0-----|-----0--------0--------0--|
D|--3-----------------------|--------3--------3--------|
A|--------------0-----------|--1-----------------------|
E|--------------------------|--------------------------|
| |
G2 H|--------------------------|--------------------------|
G|--------------------------|--------------------------|
F Am7
G1 E|--------------------0-----|-----------------------0--|
H|--1--------1-----------3--|--1--------1--------3-----|
G|--------2--------1--------|-----0--------0-----------|
D|-----3--------2-----------|--------2--------2--------|
A|--------------------------|--0-----------------------|
E|--------------------------|--------------------------|
| |
G2 H|--------------------------|--------------------------|
G|--------------------------|--------------------------|
G1 E|--3--1--------------------|--------------------------|
H|-----------3-----1--------|--0-----1-----2-----0h-1--|
G|--------2-----2-----2-----|-----0-----0--------------|
D|--0--------------------0--|--------------------------|
A|--------------------------|--------0-----1-----------|

E|--------------------------|--3-----------------------|
| |
G2 H|--------------------------|--------------------10-11-|
G|--------------------------|--------------------------|
C C
G1 E|--------------------------|--0--------0-----------0--|
H|--1--------1--3--------3--|-----1--------1-----3-----|
G|--------0-----------0-----|--------0--------0--------|
D|-----2-----------0--------|--------------------------|
A|--3-----------2-----------|--3-----------------------|
E|--------------------------|--------------------------|
|
G2 H|--13---------~13~---------|-----------------------10-|
G|--------------------------|--10-------------10-12----|
F A7
G1 E|--1--------1--0--------0--|-----------0--------0-----|
H|--------1--------2--------|--3-----------3--------3--|
G|-----2--------------0-----|-----0-----------0--------|
D|--3-----------------------|--------3-----------------|
A|--------------0-----------|--1-----------------------|
E|--------------------------|--------------------------|
| |
G2 H|--10h11-------10b11r10----|--------------------------|
G|--------------------------|--12----------------12h14p12p10|
F Am7
G1 E|--------------------0-----|-----------------------0--|
H|--1--------1-----------3--|--1--------1--------3-----|
G|--------2--------1--------|-----0--------0-----------|
D|-----3--------2-----------|--------2--------2--------|
A|--------------------------|--0-----------------------|
E|--------------------------|--------------------------|
| |
G2 H|--------------------------|-----------------------10-|
G|--10----------9-----------|--10-------------10-12----|
G
G1 E|--3--1--------------------|--------------------------|
H|-----------3-----1--------|--0--------0--------------|
G|--------2-----2-----2-----|-----0-----0--------------|
D|--0--------------------0--|--------0--0--------------|
A|--------------------------|-----------2--------------|
E|--------------------------|--3--------3--------------|
| |
G2 H|-/13-11-------------------|--------------------------|
G|-----------12----10-------|--9-----------------------|
ye:
C C
G1 E|--------------------------|-----------0--------------|
H|--1-----------3-----------|--1-----------1-----1-----|
G|-----0-----0-----0-----0--|-----0-----------0-----0--|
D|--------2-----------0-----|--------2-----------------|
A|--3-----------2-----------|--3-----------------------|
E|--------------------------|--------------------------|
aa papoe ce a-
F A7 Dm
G1 E|--------------------------|-----------0--1--0--------|
H|--1-----1--------2-----2--|--------3-----------3-----|
G|-----2-----2--------0-----|-----2-----------------2--|
D|--3-----------------------|--0-----------------------|
A|--------------0-----------|--------------------------|
E|--------------------------|--------------------------|
e xo oy e- y.
F G
G1 E|--------------------------|--------------3-----------|
H|--1-----------1-----------|--0--------------0-----0--|
G|-----2-----2-----2-----0--|-----0-----0--------0-----|
D|--3-----3-----------3-----|--------0-----------------|
A|--------------------------|--------------------------|
E|--------------------------|--3-----------------------|
caaa ae, oa e a
C
G1 E|--------------------------|--------------------1p-0--|
H|--1--------1--------0--1--|--0-----------0-----------|
G|-----0--------0-----------|-----0-----0--------------|
D|--------2--------2--------|--------0-----------------|
A|--3-----------------------|--------------------------|
E|--------------------------|--3-----------------------|
| |
G2 H|--------------------10-11-|--13----------13----------|
G|--------------------------|--------------------------|
G1 E|--------------------------|-----------0-----------0--|
H|--1-----------3-----------|--1-----------1-----1-----|
G|-----0-----0-----0-----0--|-----0-----------0--------|
D|--------2-----------0-----|--------2-----------------|
A|--3-----------2-----------|--3-----------------------|
E|--------------------------|--------------------------|
| |
G2 H|--------------------------|--------------------------|
G|--10----------------------|--------------------------|
pece oo oc-
G1 E|--1--------1--------------|-----------0--1--0--------|
H|--------1--------2-----2--|--------3-----------3--1--|
G|-----2--------------0-----|-----2--------------------|
D|--3-----------------------|--0-----------------------|
A|--------------0-----------|--------------------------|
E|--------------------------|--------------------------|
a c coo o ec. A o-
G1 E|-----------1--------------|-----------3--------------|
H|--1-----------1-----1-----|--0-----------0-----0-----|
G|-----2-----------2-----0--|-----0-----------0-----0--|
D|--3-----3-----------------|--------0-----------------|
A|--------------------------|--------------------------|
E|--------------------------|--3-----------------------|
o c aoa oyc ee:
G1 E|--------------------------|--1-----------0-----------|
H|--1-----------1-----------|-----2-----2-----2-----2--|
G|-----0-----0-----0-----0--|--------0-----------0-----|
D|--------2-----------2-----|--------------------------|
A|--3-----------------------|--0-----------------------|
E|--------------------------|--------------------------|
yc e!

G1 E|-----------0--------------|--------------3-----------|
H|--3-----------3-----3-----|--0--------0-----0--------|
G|-----0-----------0-----0--|--------0-----------0-----|
D|--------3-----------------|-----0-----------------0--|
A|--1-----------------------|--------------------------|
E|--------------------------|--3-----------------------|
ooo ox oocax y co eo.

G1 E|-----------0--------------|--1--------0--------0-----|
H|--1-----------1-----1-----|-----2--------2--------2--|
G|-----0-----------0-----0--|--------0--------0--------|
D|--------2-----------------|--------------------------|
A|--3-----------------------|--0-----------------------|
E|--------------------------|--------------------------|


G1 E|--------------------------|--------------------------|
H|--3-----------3-----------|--------------0-----------|
G|-----0-----0-----0-----0--|-----------0--0-----------|
D|--------3-----------3-----|--------0-----0-----------|
A|--1-----------------------|-----2--------2-----------|
E|--------------------------|--3-----------3-----------|
ooo ox oocax...
ye:
aa paoe ocep
copee xo oy ey.
caaa, o yo ea eo a.
ye ce y o
paccaa py pyy c,
A oo a coe co ec epa a
ye...
ooo ox oocax
y co eo.
ooo ox oocax...

interlude:
oe yea... ... same as intro till ...
G1 E|--------------------------|--------------------------|
H|--------------0-----------|--------------------------|
G|-----------0--0-----------|--------------------------|
D|--------0-----0-----------|--------------------------|
A|-----2--------2-----------|--------------------------|
E|--3-----------3-----------|--------------------------|
|
G2 H|--------------------10-11-|--------------------------|
G|--------------------------|--------------------------|
G
G1 E|--3--1--------------------|--------------------------|
H|-----------3-----1--------|--0-----1-----2-----3-----|
G|--------2-----2-----2-----|-----0-----0-----0-----0--|
D|--0--------------------0--|--------------------------|
A|--------------------------|--------0-----1-----2-----|
E|--------------------------|--3-----------------------|
| |
G2 H|-/13-11-------------------|--------------------------|
G|-----------12----10-------|--9-----10----11----12----|
C C
G1 E|--------------------------|--0--------0-----------0--|
H|--1--------1--3--------3--|-----1--------1-----3-----|
G|--------0-----------0-----|--------0--------0--------|
D|-----2-----------0--------|--------------------------|
A|--3-----------2-----------|--3-----------------------|
E|--------------------------|--------------------------|
| FB
G2 H|--13----------13-13-13----|--13-------------------10-|
G|--------------------------|-----------------10-12----|
F A7 ... same as intro till the end ...
G1 E|--1--------1--0--------0--|--------------------------|
H|--------1--------2--------|--------------------------|
G|-----2--------------0-----|--------------------------|
D|--3-----------------------|--------------------------|
A|--------------0-----------|--------------------------|
E|--------------------------|--------------------------|
| HB&r |
G2 H|--10h11-------10----10-11-|--------------------------|
G|--------------------------|--------------------------|
ye:
aa paco e
cace xo oy o.
caaa, o o o ocxo.
ae cx,
O o a a xopoo c oo,
A oo ay e aea ooe
e...
ooo ox oocax
y co eo
ooo ox oocax...
outtro(symphonic):
Measure: 3/4;
G1 E|-------------|---0---------|-------------|-------------|
H|-1---1---1---|-3---3-------|-3---3---3---|-3-2---------|
G|-0-----------|-0-----------|-0-----------|-0---2-------|
D|-2-----------|-------------|-2-----------|-2-----------|
A|-3-----------|-------------|-0-----------|-------------|
E|-------------|-------------|-------------|-------------|


G1 E|-1---1---1---|-1-0-3-------|-------------|-------------|
H|-1-----------|-1-------1---|-3-----------|-------------|
G|-2-----------|-2-----------|-2---2---5---|-4-5p4-2-0---|
D|-3-----------|-------------|-0-----------|-------------|
A|-------------|-------------|-------------|-------------|
E|-------------|-------------|-------------|-------------|
eoxoe oce:
poeee acao a(F), a o aop yaa c ye-
o oo, o y ac a o ay co aoacp. ca pa
e aoacpa, .e. o(C) - e yoee.
oce opoo yea a paa paec opa ac cye-
c eo apa.
xoe peo epeoee cye oo ap.
Coo ap poco ee oee o p-ap, a o
o ce oo cpa a oo ape. o coo e
co - opoye cpa oo x oee, o coo coxpa-
eo ooc. p pe capaec x e.
C C
G1 E|--------------------------|--0--------0-----------0--|
H|--1--------1--3--------3--|-----1--------1-----3-----|
G|--------0-----------0-----|--------0--------0--------|
D|-----2-----------0--------|--------------------------|
A|--3-----------2-----------|--3-----------------------|
E|--------------------------|--------------------------|
F A7
G1 E|--1--------1--0--------0--|--------------------------|
H|--------1--------2--------|--3--------3--------3-----|
G|-----2--------------0-----|-----0--------0--------0--|
D|--3-----------------------|--------3--------3--------|
A|--------------0-----------|--1-----------------------|
E|--------------------------|--------------------------|
F Am7
G1 E|--------------------0-----|-----------------------0--|
H|--1--------1-----------3--|--1--------1--------3-----|
G|--------2--------1--------|-----0--------0-----------|
D|-----3--------2-----------|--------2--------2--------|
A|--------------------------|--0-----------------------|
E|--------------------------|--------------------------|
G1 E|--3--1--------------------|-------------------(0)(1)-|
H|-----------3-----1--------|--0-----1-----2-----------|
G|--------2-----2-----2-----|-----0-----0--------------|
D|--0--------------------0--|--------------------------|
A|--------------------------|--------0-----1-----------|
E|--------------------------|--3-----------------------|
C C
G1 E|-(3)---------(3)----------|----------------------(0)-|
H|-----------1-----------3--|-(1)-------1----(1)(3)----|
G|--------0-----------0-----|-----0--------0-----------|
D|-----2-----------0--------|--------2-----------------|
A|--3-----------2-----------|--3-----------------------|
E|--------------------------|--------------------------|
F A7
G1 E|-(1)-------1-(0)-------0--|-----------0-------(0)----|
H|--------1--------2--------|-(3)----------3-------(3)-|
G|-----2--------------0-----|-----0-----------0--------|
D|--3-----------------------|--------3-----------------|
A|--------------0-----------|--1-----------------------|
E|--------------------------|--------------------------|
F Am7
G1 E|--------------------0-----|----------------------(0)-|
H|-(1)-------1-(0)-------3--|-(1)-------1----(1)(3)----|
G|--------2--------1--------|-----0--------0-----------|
D|-----3--------2-----------|--------2-----------------|
A|--------------------------|--0-----------------------|
E|--------------------------|--------------------------|
G
G1 E|(/3)(1)-------------------|--------------------------|
H|----------(3)---(1)-------|-(0)-------0--------------|
G|--------2-----2-----2-----|-----0-----0--------------|
D|--0--------------------0--|--------0--0--------------|
A|--------------------------|-----------2--------------|
E|--------------------------|--3--------3--------------|