( )

A                                                   

O
1]----------------------------------------------------------------------
2]------7-7---------12--7-------7-7------12--7--------7-7--------12--7--
3]----7-----7----12-----------7-----7----12---------7-----7---12--------
4]--7---------7-------------7---------7-----------7---------7-----------
5]----------------------------------------------------------------------
6]----------------------------------------------------------------------
1]----------------------
2]------7-7------12-----
3]----7-----7------(7)-- -> 2 paa. o, o coax - opo pa
4]--7---------7--------- e paec.
5]----------------------
6]----------------------
o pe opoo paa cyae ayca:
1]--3---------------------3-----0--0---------3-----0--0-----------3-----------
2]--0--3-3--3--3----------0--3--3--3---------0--3--3--2-----------0--3--3-----
3]--0--2-2--0--0----0-0---0--2--0--0----0-0--0--2--0--0------0----0--2--0-----
4]-----0-0--2-------2--------0--2-------2-------0--2-----0/2---0-----0--------
5]-------------3--3-3--------------3--3-3-------------3-----------------3-----
6]--3---------------------3------------------3--------------------3-----------
D5 Em7 G Csus2
Cpaoe yco ao-o -
D5 Em7 G Csus2
a peo ae c oo oe.
D5 Em7 G Csus2
Co paee a oc
D5 Em7 G Csus2
a ayc a e-o coe
G D C D
e aa, e oc, cee!
G D C D
oycye, cpay cae ee
G G D Em
co o o, a oa cec
Em9(add C) D
pao ax cpace
1]--------3/5-3---------3-3-2--------3/5-3-------------
2]--0-1-3--------1-1-1---------0-1-3--------1-3--------
3]--0------------0------2------0------------0---0/2-0--
4]----------------------0------------------------------ -> 2 paa
5]---------------3--------------------------3----------
6]--3--------------------------3-----------------------
G C D G C
He yea e o, o ca
aeo capee o
He oop e, o o caaac
pea pya c o.
He ypea, o oceee pe
ca paoye ee
e ac aac yo,
a, ep e.
o o pyc, p o paoc,
o ee oe e ee?
epeo ca yo apy,
cae: o ce oaa oa!
e o ce y pacce
o ce, o o-ec a yo.
a, o caa ea,
He ee e po--po.
1]---------------------------2/3-2-----3-2/3\2-------2---
2]----------3-------3------4-------3------------3--------
3]--------0-------0------2----------2--------------2-----
4]------4-------4------0-------------0-------------------
5]------------3------------------------------------------
6]---0---------------------------------------------------
C D G Em7
aa, acoo eea, o e axo coa.
C D G C A7sus4
ce oae, poco ceec, a pac a pa...
Solo...
Aop:
D5 Em7 G Csus2 D/F# A7sus4 Em7
1]--x-- 1]--x-- 1]--x-- 1]--x-- 1]--2-- 1]--x-- 1]--0--
2]--3-- 2]--3-- 2]--3-- 2]--3-- 2]--3-- 2]--3-- 2]--3--
3]--2-- 3]--0-- 3]--0-- 3]--0-- 3]--2-- 3]--0-- 3]--0--
4]--0-- 4]--2-- 4]--x-- 4]--x-- 4]--0-- 4]--2-- 4]--2--
5]--x-- 5]--x-- 5]--2-- 5]--3-- 5]--0-- 5]--0-- 5]--2--
6]--x-- 6]--x-- 6]--x-- 6]--x-- 6]--2-- 6]--x-- 6]--0--
D5 - xx023x; Em7 - xx203x; G - x2x03x; Csus2 - x3x03x; D/F# - 200232;
A7sus4 - x0203x; Em7 - 022030;