АККОРДЫ ДЛЯ ГИТАРЫ

главная аккорды и песни песни

Песни под гитару

Самоучитель игры на гитаре (для новичков)

Аккорды к песням

A  Б  В  Г  Д  Е  Ж  З  И  К  Л  М  Н  О  П  Р  С  Т  У  Ф  Х  Ч  Ш  Э  Ю  Я 

Чичерина

 

E ------|------|------|------|------|------|------|------|------|-----
B ------|------|------|------|------|------|------|------|------|-----
G ------|------|------|------|------|------|------|------|------|-----
D ------|------|------|------|------|------|------|------|------|-----
A ------|------|------|------|------|------|------|------|------|-----
E ------|------|------|------|------|------|------|------|------|-----

E -|------|------|-4-4-4-2-|-4-4-4-4-4-4-2-|-4-4-4-9-9-4-4-|-2-2-2-2-2
B -|------|------|---------|---------------|---------------|----------
G -|------|------|---------|---------------|---------------|----------
D -|------|------|---------|---------------|---------------|----------

A -|------|------|---------|---------------|---------------|----------
E -|------|------|---------|---------------|---------------|----------

E -2-0-|-4-4-4-4-4-4-2-|-4-4-4-4-4-2-|-4-4-4-9-9-4-4-|-2-2-0-2-0-2-0-|
B -----|---------------|-------------|---------------|---------------|
G -----|---------------|-------------|---------------|---------------|
D -----|---------------|-------------|---------------|---------------|
A -----|---------------|-------------|---------------|---------------|
E -----|---------------|-------------|---------------|---------------|

E -2-0-2-4-|------|------|------|---4-2-2-2-0-|-0-0-0-----|-0-0-0-0-0-
B ---------|------|------|------|-2-----------|-------2-0-|-----5-----
G ---------|------|------|------|-------------|-----------|-----------
D ---------|------|------|------|-------------|-----------|-----------
A ---------|------|------|------|-------------|-----------|-----------
E ---------|------|------|------|-------------|-----------|-----------

E ------|-----|---4-2-2-2-0-|-0-0-0-----|-0-0-0-0-0-------|-4-4---|---
B 2-0-2-|-4---|-2-----------|-------2-0-|-----5-----2-0-2-|-----7-|---
G ------|---5-|-------------|-----------|-----------------|-------|---
D ------|-----|-------------|-----------|-----------------|-------|---
A ------|-----|-------------|-----------|-----------------|-------|---
E ------|-----|-------------|-----------|-----------------|-------|---

E ---|------|------|------|------|------|------|------|-4-4-4-2-|-4-4-
B ---|------|------|------|------|------|------|------|---------|-----
G ---|------|------|------|------|------|------|------|---------|-----
D ---|------|------|------|------|------|------|------|---------|-----
A ---|------|------|------|------|------|------|------|---------|-----
E ---|------|------|------|------|------|------|------|---------|-----

E 4-4-4-4-2-|-4-4-4-9-9-4-4-|-2-2-2-2-2-2-0-|-4-4-4-4-4-4-2-|-4-4-4-4-
B ----------|---------------|---------------|---------------|---------
G ----------|---------------|---------------|---------------|---------
D ----------|---------------|---------------|---------------|---------
A ----------|---------------|---------------|---------------|---------
E ----------|---------------|---------------|---------------|---------

E 4-2-|-4-4-4-9-9-4-4-|-2-2-0-2-0-2-0-|-2-0-2-4-|------|------|------|
B ----|---------------|---------------|---------|------|------|------|
G ----|---------------|---------------|---------|------|------|------|
D ----|---------------|---------------|---------|------|------|------|
A ----|---------------|---------------|---------|------|------|------|
E ----|---------------|---------------|---------|------|------|------|

E ---4-2-2-2-0-|-0-0-0-----|-0-0-0-0-0-------|-----|---4-2-2-2-0-|-0-0
B -2-----------|-------2-0-|-----5-----2-0-2-|-4---|-2-----------|----
G -------------|-----------|-----------------|---5-|-------------|----
D -------------|-----------|-----------------|-----|-------------|----
A -------------|-----------|-----------------|-----|-------------|----
E -------------|-----------|-----------------|-----|-------------|----

E -0-----|-0-0-0-0-0-------|-4-4---|---4-2-2-2-0-|-0-0-0-----|-0-0-0-0
B ---2-0-|-----5-----2-0-2-|-----7-|-2-----------|-------2-0-|-----5--
G -------|-----------------|-------|-------------|-----------|--------
D -------|-----------------|-------|-------------|-----------|--------
A -------|-----------------|-------|-------------|-----------|--------
E -------|-----------------|-------|-------------|-----------|--------

E -0-------|-----|---4-2-2-2-0-|-0-0-0-----|-0-0-0-0-0-------|-4-4---|
B ---2-0-2-|-4---|-2-----------|-------2-0-|-----5-----2-0-2-|-----7-|
G ---------|---5-|-------------|-----------|-----------------|-------|
D ---------|-----|-------------|-----------|-----------------|-------|
A ---------|-----|-------------|-----------|-----------------|-------|
E ---------|-----|-------------|-----------|-----------------|-------|