( )

A                                                   


Intro: Em Cm6
e:--0-----3---0---------5-------------7-------10h11p-7----- -7- -5-
B:----------------4---------4---8---------8--------------8- -8- -4-
-9- -0-
e:--0-----3---0---------5-------------7-------12-----7----- -9- -5-
B:----------------4---------4---8---------8--------------8- -7- -3-
-x- -x-
Em Cm6 G
o, epo. Po, ep. pec-o. ap a po.
Em Cm6 G
, o. e, aao. ee y. yaco.

C5 B5
e:-12-:--------------------------------------------
B:-12-:-----11b-------11b-------11b-----10-8-------
G:----:-9-9-------9-9-------9-9--------------9-7-9-

E5
e:-------------------------------7------------
B:-----11b-------11b--------------------------
G:-9-9-------9-9-----------9-7-9---10p9-9-7-9-

C5 B5
e:--------------------------------------------
B:-----11b-------11b-------11b-----10-8-------
G:-9-9-------9-9-------9-9--------------9-7-9-

E5
e:--------------------------------------------
B:-----11b-------11b--------------9-9-9-9-9-9-
G:-9-9-------9-9------------------7-7-7-7-7-7-
D:--------------------------------9-9-9-9-9-9-
D:--------------------------------7-7-7-7-7-7-

Verse: Am6
C B7 Em -2-
o oa o co e c ya -1-
C B7 Em -2-
o py, o aa, o a, o ooca -2-
C B7 Em/B -0-
e o apaco ec coe -x-
Am6 A7
o oop, o e, o py xoe y e

Chorus:
C B7 Em E7
o, epo. Po, ep. pec-o. ap a po
C B7 Em E7
, o. e, aao. ee y. yaco
C B7 Em E7
Ho, paea, e-o , c e-o , ca pe, coo pee
C B7 Em E7
o oa o co e c ya

Verse:
C B7 Em
xoy yea, o e a ya ea, ya ea, ya? ya?
C B7 Em
o oa o co e c ya, c ya, caa, e, oa
C B7 Em
e coe, a aa ep - ya? ya? ya? ya?
Am6 A7
o oop, o e, o py xoe y e

[Chorus]

Solo: [x2]
e:----------------:-----------------:-----------------:-----------------
B:------10--------:------10--12b13r-:------10---------:------10--13b14r-
G:-12b------9b&r--:-12b-------------:-12b------11b12r-:-12b-------------
D:----------------:-----------------:-----------------:-----------------
A:----------------:-----------------:-----------------:-----------------
E:----------------:-----------------:-----------------:-----------------

Em D#
o, epo. Po, ep. pec-o. ap a po.
D E
, o. e, aao. ee y. yaco.
Em D#
Ho, paea, e-o , c e-o , ca pe, coo pee
D E
o, epo. Po, ep. o, epo. o, epo.

[Chorus]