( )

A                                                   

o e caoe, o aop oo e aayp (oy a yoee)...
Aycecoe cpyee
E----7-7---7-7---7-7---7-7---7-7---7-7---8--8----7-7--
B----8-8---7-7---8-8---7-7---8-8---7-7---8--8----7-7--
G----9-9---9-9---9-9---9-9---9-9---9-9---9--9----8-8--
D----9-9---9-9---9-9---9-9---9-9---9-9---10-10---9-9--
A----7-7---7-7---7-7---7-7---7-7---7-7---10-10---9-9--
E----7-7---7-7---7-7---7-7---7-7---7-7---8--8----7-7--



riff1
E--------------------------------------------------
B--------------------------------------------------
G--------------------------------------------------
D--2-2-2---2-2-2---2-2-2---2-2-2-------5------4----
A--2-2-2---2-2-2---2-2-2---2-2-2-------5------4----
E--0-0-0---0-0-0---0-0-0---0-0-0---0-0-3--0-0-2----

E-------------------------------------------------
B-------------------------------------------------
G-------------------------------------------------
D--2-2-2---2-2-2---2-2-2---2-2-2-----45-----4-----
A--2-2-2---2-2-2---2-2-2---2-2-2-----45-----4-----
E--0-0-0---0-0-0---0-0-0---0-0-0---0-23--0--2-----


riff2 (ye)
E-------------------------------------------------------------------------
B-------------------------------------------------------------------------
G-------------------------------------------------------------------------
D----2------------------------------2---4-------------------------------4-
A----2------------------------------2---4-------------------------------4-
E----0------------------------------0---2-------------------------------2-

oyxe eae eocoa cpax. ce eoc op a ocpax...

E--------------------------------------------------
B--------------------------------------------------
G--------------------------------------------------
D----2-2-2---2-2-2---2-2-2---2-2-2----45-----4-4---
A----2-2-2---2-2-2---2-2-2---2-2-2----45-----4-4---
E----0-0-0---0-0-0---0-0-0---0-0-0--0-23--0--2-2---

X!!! xoa e - cca y, ooc oe


riff3 (pe)
E----------------------
B----------------------
G---2-------54-------7-
D---2-------54-------7-
A---0--0-0--32--0-0--5-
E----------------------
He ocaoc pyoo y.
E----------------------
B----------------------
G---2-------54-------5-
D---2-------54-------5-
A---0--0-0--32--0-0--3-
E----------------------
op cea, opoa a.
E----------------------
B----------------------
G---2------54-------7--
D---2------54-------7--
A---0--0-0-32--0-0--5--
E----------------------
op cea ao .
E----------------------
B----------------------
G---2------54-------5--
D---2------54-------5--
A---0--0-0-32--0-0--3--
E----------------------
oa!!!!!