( )

A                                                   

intro(epc c ooeoo aoa)

F5 G5 A5 G5 F5
E|----------------------------------|-----------------------------------|
H|-------------5---3-----0----------|-----------5---3------5----3-------|
G|---2-----------------------0----2-|--2------------------------------5-|
D|-------3--------------------------|----------3------------------------|
A|----------------------------------|-----------------------------------|
E|----------------------------------|-----------------------------------|
F5 G5 A5 C5 E5
E|----------------------------------|----------------------------------|
H|------------5---3-----0-----------|----------------------------------|
G|---2------------------------0---2-|---4--5--4---------5--7--9--------|
D|--------3-------------------------|----------------------------------|
A|----------------------------------|----------------------------------|
E|----------------------------------|----------------------------------|
ye :
Am F
e epe ooy - o
Dm Am
oo poe coa o o
A5 F5
a e poc a o

D5 A5
e ooc oe epe
oc:
G5 A5
Oa ec eo oc oyx
G5 A5
Oa ec p cac poc
G5 A5
eep o e a oy
G5 E5
yy o epae o ce
pe:
A5 D5
e epe ooy - o
G5 E5 A5
o pe oo a ce aepe epa oe
A5 D5
e epe ooy - o
G5 E5 A5
C a x e cax x ee oo a eep ce
ye:
pyc opo acoe
A y ee paoe
eep cpo coe oope
ce a oo ce a oo

SOLO
gtr1
E|-------------------------------------------------------------------|
H|-------------------------------------------------------------------|
G|-------------------------------------------------------------------|
D|-------------------------------------------------------------------|
A|--3-3-3-3-3-3-2-2-2-2----5-5-5-5----3-3-3-3-3-3-3-3-3-3-3-3-3------|
E|-------------------------------------------------------------------|
E|-------------------------------------------------------------------|
H|-------------------------------------------------------------------|
G|-------------------------------------------------------------------|
D|-------------------------------------------------------------------|
A|--7-7-7-7-7-7--5-5-5-5---8-8-8-8-----7-7-7-7-7-7-7-7-7-7-7-7-------|
E|-------------------------------------------------------------------|
E|-------------------------------------------------------------------|
H|-------------------------------------------------------------------|
G|-------------------------------------------------------------------|
D|-------------------------------------------------------------------|
A|--8-8-8-8-8-8--7-7-7-7----10-10-10-10----8-8-8-8-8-8-8-8-8-8-8-8---|
E|-------------------------------------------------------------------|
E|-------------------------------------------------------------------|
H|-------------------------------------------------------------------|
G|-------------------------------------------------------------------|
D|---7-------------9--------------10-------------------12------------|
A|-------------------------------------------------------------------|
E|-------------------------------------------------------------------|
gtr2
E|-----8-----7-----8bend to 10 rel to 8--|-------12----10-----12b13r12-----|
H|---------------------------------------|---------------------------------|
G|---------------------------------------|---------------------------------|
D|---------------------------------------|---------------------------------|
A|---------------------------------------|---------------------------------|
E|---------------------------------------|---------------------------------|
E|---13-----12----13b15r13----------|---17----19----20--------22------|
H|----------------------------------|---------------------------------|
G|----------------------------------|---------------------------------|
D|----------------------------------|---------------------------------|
A|----------------------------------|---------------------------------|
E|----------------------------------|---------------------------------|