( )

A                                                   

Intro:

Em Am
e|------------------------------------0--0-0---------------0--0-0-------
H|-0--0-0--------------0--0-0----------------3-1-----1-3----------3-1---
G|--------2-0-----0-2---------2-0----------------2-2------------------2-
D|------------2-2-----------------2-------------------------------------
A|----------------------------------------------------------------------
E|----------------------------------------------------------------------

Em H7
e|----------------------------------------------------------------------
H|-0--0-0--------------0--0-0----------0--0-0-3-0-4-0-7-0--0--0-0-4-0-7-
G|--------2-0-----0-2---------2-0---------------------------------------
D|------------2-2-----------------2-------------------------------------
A|----------------------------------------------------------------------
E|----------------------------------------------------------------------

yee:

Em - Am - H7 -
A|-------0-2-2-0---- D|-------0-2-2-0---- D|-----0---1---4----
E|-0-0-3---------3-- A|-0-0-3---------3-- A|-2-2---2---2---2--

pee a e, o oo a opo aope cpoe...

Em
Oa eepo cay,
Em
cpe eyy oy,
Am
Oa ya p ye,
Am
e a e e ae,

Em
Oa aea e,
Em
peoa co o,
H7
A a e ey e,
H7
Cc oy ey coo,

py:

C Em
Aey, ooo,
H7 Em
ec e c coo,
C Em
Ha coopo, a oo,
F H7
Ha xooo ee.

Ee cpoc : "e e?",
Oa caaa: "coo",
oaa aepx pyo,
eya a ee oy:

eepa. pocc c e,
cxoo coe, e ac,
a e a pae,
ce ece o e ac,

py:

Aey, ooo,
ec e c coo,
Ha coopo, a oo,
ce a oao eo.

oop: Denis V. Semenov (ex-2:5020/961)