( )

[Intro] (Repeat 2 times)
||-------3---3--------0---0--------0---0--2---2------------------
||-----3---3--------0---0--------1---1----------3----------------
||---4------------0------------0------------------2--------------
||-5------------2---------------------------0--------------------
||---------------------------3-----------------------------------
||---------------------------------------------------------------

[Verse]
1.a e p oo oo ce
||-------3---3--------0---0--------0---0--------2---2------------
||-----3---3--------0---0--------1---1--------3---3--------------
||---4------------0------------0------------2--------------------
||-5------------2-------------------------0----------------------
||---------------------------3-----------------------------------
||---------------------------------------------------------------

1. oe
||-------3---3--------0---0--------0---0--2---2------------------
||-----3---3--------0---0--------1---1----------3----------------
||---4------------0------------0------------------2--------------
||-5------------2---------------------------0--------------------
||---------------------------3-----------------------------------
||---------------------------------------------------------------

1. cy ox ao y ooo e
||-------3---3--------0---0--------0---0--------2---2--------3---3--------2---2--3-
||-----3---3--------0---0--------1---1--------3---3--------4---4--------4---4----3-
||---4------------0------------0------------2------------5------------5----------4-
||-5-------------------------2------------0------------5------------5------------5-
||--------------3------------------------------------------------------------------
||---------------------------------------------------------------------------------

[Chorus]
a a, o
||-----0-----2-------3-
||---1-----3-------4---
||-0-----2-------5-----
||---------------------
||---------------------
||---------------------

ceo e co o oo
||-------3------------2------------0--------------------------0------
||-----5---5--------4---4--------0---0--------0------0------1----1---
||---5-------5----4-------4----0-------0----0------0------0--------0-
||-5------------4------------2------------2------0-------------------
||------------------------------------------------------3------------
||-------------------------------------------------------------------

a pa oa y
||-------2------------0------------3------------3-----
||-----4---4--------0---0--------3---3--------5---3---
||---4-------4----0-------0----4-------3----5-------3-
||-4------------2------------5------------5-----------
||----------------------------------------------------
||----------------------------------------------------

o o ocoo ya -
||-------2------------0--------------------------0------
||-----4---4--------0---0--------0------0------1----1---
||---4-------4----0-------0----0------0------0--------0-
||-4------------2------------2------0-------------------
||-----------------------------------------3------------
||------------------------------------------------------

- o ac
||-------2------------3------------3------3-
||-----3---3--------3---3--------3---3----3-
||---2-------2----4-------3----3-------3--4-
||-0------------5------------5------------5-
||------------------------------------------
||------------------------------------------

ce a e, a oa,
ao e , y ce,
ec pee oa,
e co o e.

p.