( )

A                                                   

-2

N.C. Gm
oe opoa
D#
yce oea
Cm
H epea, a
D(V)
ce aa caaa
Xooa oa
pe, a oa
O e coe c ya
eo e aa...
PE:
(Gm) D#
ooy o e e
(Gm) F(VIII) D# F D#
ooa o e e...
Ha o
yce opoa,
oopx oa
pae e aa
pyc oea
Ha oe coa
O e coe c ya
eo e aa...
PE:

Solo iz pesni:
---------------
Aop oopa: wilfor
Clean Guitar
1|--6------5-------------------6------5----------
2|-------------------6-4--4-6--------------------
3|----7-7---7-7--7---------------8-8--8-8--8-7-
4|------------------------------------------------
5|------------------------------------------------
6|------------------------------------------------
==========================================================
G D#
ooy o e e
1|-------------------------------------
2|-------------------------------------
3|-----5-3-----------------------------
4|---5-----5------------------8-8--8-8
5|-5---------5--5-6-5--8-6--6-6--6-6
6|--------------------------------------
G F
ooa o e e
1|-----------------------------6-6-5--6-6-5
2|-------------------------------------------
3|-----5-3----------------------------------
4|---5-----5--------------------------------
5|-5---------5--5-6-5--8-6----------------
6|------------------------------------------
========================================================
Solo v konce pesni:
1|-------------------------------------------
2|-------------------------------------------
3|-------------------------------------------
4|------------------10--------------10-------
5|----12-13-12-13------12-13-12-13-----------
6|-10-----------------10---------------------
1|-------------------------------------------
2--------------------------------------------
3|-------------------------------------------
4-----------10----------15-13-12-10-12-------
5|---12-13----13-12---------------------12---
6-10-----------------------------------------
Vrode bi pohoge.