( )

A                                                   

-2


Intro: (ca yo imho)
e||------------------------------------------------------------------|
b||-0--3-7-5-7-5-7-10-5--3-2--2/3-2-0-3-0----------------------------|
g||------------------------------------------------------------------|
d||------------------------------------------------------------------|
a||------------------------------------------------------------------|
e||------------------------------------------------------------------|
Hm
ece ee eacax, coo?
A Em Hm
Ca, yya, poo.
Hm
opoe e a ceax,
A Em Hm
ae ea ope eo? eo.
Chorus: (ye a)
A G Hm
Coe oe - a e,
(xo)

e||---------------------------|
b||---------------------------|
g||---------------------------| ac
d||---------4-5-4-2-0---------|
a||---2-2-2-------------------|
e||---------------------------|

e||---------3-2-0-------------|
b||---0-0-0-------3-(2)-------|
g||---------------------------| co
d||---------------------------|
a||---------------------------|
e||---------------------------|
A G Hm
o ao pepaac ya,
A G Hm
ec ec opox - a o.
A G Hm D Em F#m
o a...

o oe o cey oooy?
Ce a cee oo co oe, o.
ao o ocac ceo a,
peo ye a c epo pyo cpo, cpo.

e e eep, o oa?
C e e ceac aco pacce cpeae? Oe.
Xopoo c oo, a oxo e e,
ooy a e epee o e, o e.