( )

A                                                   

-2

Transcribed by: Nemitullaev Marlen

Email: maricone@mail.ru

________________________________________________________________________

 

2 - \"Cepepo\"

 

Am

e epyc

 

Dm Am

a oop oa-o

 

F Dm Am

ya oa o coa

 

E

pepaa x oy

 

Am Dm Am

c oa a pooee y

 

F Dm

Oca oa

 

Am Dm E

Co ecey cooy

pe:

Dm E Am

He oep cepepe

 

F

E oy

 

Dm E

aey...

 

 

Solo_1 Am F Dm E

-|----------------|---------------------------|------------|-

-|----------------|---------------------------|------------|-

-|-4-7-4-5--5-9---|-10-10-10-9-7-5-4-5--5-9---|-10-10-10-9-|-

-|--------------7-|-------------------------7-|------------|-

-|----------------|---------------------------|------------|-

-|----------------|---------------------------|------------|-

He o cee

O o xo yo

C oopo a

Ha e cepe py pya

o o

e e opac oa

o eya ea

ee e o pyy

pe:

 

 

Solo_2 Am - F - Dm - E - Am - F - Dm - E - ...

-|-5h7-8-7-5h7-5---|-----------------|-8/10p--12v--15-13-12h13-12----|-

-|---------------6-|-5h6-8-6-5h6-5---|----------------------------12-|-

-|-----------------|---------------7-|-------------------------------|-

-|-----------------|-----------------|-------------------------------|-

-|-----------------|-----------------|-------------------------------|-

-|-----------------|-----------------|-------------------------------|-

 

-8/10-10---10-10-10--12--12-------------------------7/8-8-8-|-

----------------------------8/10-10--10-10-10-12-12---------|-

------------------------------------------------------------|-

------------------------------------------------------------|-

------------------------------------------------------------|-

------------------------------------------------------------|-

 

-15-13-12h13-12----|-19-19-19-19-19-19-17-|-12-12-12-12-13-12-10-|-

----------------12-|----------------------|----------------------|-

-------------------|----------------------|----------------------|-

-------------------|----------------------|----------------------|-

-------------------|----------------------|----------------------|-

-------------------|----------------------|----------------------|-

 

-8/10-10---10-10-10--12--12-----------------------|-

-----------------------------8/10-10--10-10-10-12-|-

--------------------------------------------------|-

--------------------------------------------------|-

--------------------------------------------------|-

--------------------------------------------------|-

 

A oaax

ac y eep ce

e epeeac opoa

oy e eceo

 

pe:

Solo_1...

 

The end.

 

(o paec c Distortion o pe pea a ae ae, epa o)

-|-8v----10v----12v----------|-20-19--------|-

-|------------------10v--12v-|--------18-17-|-

-|---------------------------|--------------|-

-|---------------------------|--------------|-

-|---------------------------|--------------|-

-|---------------------------|--------------|-

That\'s it, adios, amigos!!!