.

( )

A                                                   

Ayo (Ըopo-oo po)

-----------------------------

e ye

 

eo oaa:

 

A---a--a - e y-e

................................

G-------------------------------|

D-8---7--4----5--8---7--4---5---|

A-------------------------------|

E-------------------------------|

 

A--a--a e- o - o

..................................

G---------------------------------|

D-8--7--4----5--8---7--4---5---10-|

A---------------------------------|

E---------------------------------|

 

o-o-y e e-o---o

.............................

G-2--3--5--7--8----7--5---2-|

D---------------------------|

A---------------------------|

E---------------------------|

 

Ececeo, c eo oo pa a oo D

, aoopo, cec aaypy e pcyy

aopo, o ypoc opae coeee eo

c aopa.

 

Aop:

 

Gm

A-a-a, e ye,

A-a-a, e o ,

Cm N.C.

O, ooy e eo-o.

Gm

A-a-a, O o ea,

A-a-a, A eea,

Cm N.C. Gm

O, ooy e eo-o-o-o.

 

N.C. - no chords (=e aopo)

 

p pe aopa o poo, o oe cxoec

c opao peoeyec pe o pee opa aop

pya cpy. ea o pepo a:

 

Gm

ooe aop

yae yee

e--3---------3x-----|-3-----3x------------3x-----------3x-...|

B--3---------3x-----|-3-----3x------------3x-----------3x-...|

G--3---------3x-----|-3-----3x---3-3-3----3x---3-3-3---3x-...|

D--5---------5x-----|-5-----5x---5-5-5---------5-5-5------...|

A--5---------5x-----|-5-----5x---5-5-5---------5-5-5------...|

E--3---------3x-----|-3-----3x---3-3-3---------3-3-3------...|

 

a eo opao coece aop eo oaa - ae oe

opecoe eo ;)

_________________

aleister, pyc

aleister@chat.ru