.

( )

A                                                   

Intro:
e|--0==---------------0=====----------------------
H|-0-------------3----1=====----------------------
G|--------0----2----0-----------------------------
D|------2----0------------------------------------
A|----------------3-------------------------------

e|---12===-0----------0=====----------------------
H|-12------0-----3----1=====----------------------
G|-------------2----0-----------------------------
D|-----------0------------------------------------
A|-------7--------3-------------------------------

e|--0==----------2----0======---------------------
H|-0-------------3----1======---------------------
G|--------0----2----0-0======---------------------
D|------2----0--------2======---------------------
A|----------------3---3======---------------------

e|-0-----------2----0-0-0-------------------------
H|---0---------3----1-1-1-------------------------
G|-----0-----2------0-0-0-------------------------
D|-------2-0--------2-2-2-------------------------
A|----------------3-3-3-3-------------------------

Em D C <-- ecoo pa

Em D Em
ae epe a - ee
D Em
o o eo - e o e
G D (H7) Em
cpec coa, cae \"pe\"
C D
o ec o-o e o

pe:
Em
o po--po ep
D Em
A ee e
D Em D Em
Po--po ep, a -aa
G D (H7) Em
e, o ac , cop a ce
C D Em D C Em D C
Po--po ep, a -a-a ee e

Oe pe ye e o po
a epx a o x p a co
e x p a opox ae
Ocac oo p aca

pe.

oo o. p cee
co co opo a poe
a ex o ac a ex o ac a
a ex o oa e poc a o o...
pe.